Accordium Delectus Подборка аккордов
 

Главная > Н > Носков Николай > Романс

Николай Носков - Романс Текст песни с аккордами


Вступление (табы, примерный вариант):


E|---7-7>5----5-5>3----3-3>2-0---2>3>2--------7-7>5—-5>3-3>2----0-2-0----|

H|---0-0------0-0------1-1---0-4-0------------0-0--------0------1-1-1--4-|

G|---0-0------0-0------2-2---2---2------------0-0--------0------2-2-2--2-|

D|---------------------------------------------------------------------4-|

A|-------------------0-------2--------------------------------0--------2-|

         E|-0--------3-------------------------------0--------3-------------------| - 2 раза


Em                  C     
Однообразные мелькают,
Em                          C   
Всё с той же болью, дни мои,
Am            D       G     
Как будто розы опадают
   Am     Am/G      Am/F#  H7
И умирают соловьи

E                    Am   Am/G    
Но и она печальна то-о-оже, 
F#                   Am  H7     
Мне приказавшая любо-о-овь,
Em                   Am       
И под её атласной кожей,
C                    Em   Em/G   
И под её атласной ко-о-ожей
 F           H7        Em       
Бежит отравленная кровь,
F           H7         Em     
   Бежит отравленная кровь...

Проигрыш (примерный вариант):

E|---7-7>5----5-5>3----3-3>2-0---2>3>2--------7-7>5—-5>3-3>2----0-2-0----|

H|---0-0------0-0------1-1---0-4-0------------0-0--------0------1-1-1--4-|

G|---0-0------0-0------2-2---2---2------------0-0--------0------2-2-2--2-|

D|---------------------------------------------------------------------4-|

A|-------------------0-------2--------------------------------0--------2-|

E|-0--------3-------------------------------0--------3-------------------|



И если я живу на свете,
То только лишь из-за мечты
Мы оба, как слепые дети,
Пойдём на горные хребты

Туда, где есть лишь только грёзы,
В край самых белых облаков,
Искать увянувшие розы,
Искать увянувшие розы
   И слушать мёртвых соловьёв...

Проигрыш (примерный вариант):

E|-8---7----5---3----2---3----2---0-------8---7----5---3----------2--------3--------0--------0-|

H|---0---0----0---0----1---1----0---0-------0---0----0---0------3--------3--------0--------0---|

G|---0---0----0---0----2---2----2---0-------0---0----0---0----2--------4--------2--------1-----|

D|----------------------------------------------------------0--------5--------2--------2-------|

A|-------------------0--------2----------------------------------------------------------------|

E|-0--------3---------------------0-------0--------3-------------------------------------------|

 

E|---------0----------------2----------------0----------------2-------------|

H|-----1-------1--------0-------0--------1-------1--------0-------0---------|

G|---2---2---2---2----2---2---2---2----3---3---3---3----2---2---2---2-------|

D|--------------------------------------------------------------------------|

A|-0----------------2----------------3----------------2---------------------|

E|--------------------------------------------------------------------------|

 

E|---------0----------------0----------------2----------2-------------------|

H|-----0-------0--------1-------1--------0-------0------0-------------------|

G|---0---0---0---0----2---2---2---2----2---2---2---2----2-------------------|

D|------------------------------------------------------1-------------------|

A|------------------0----------------2------------------2-------------------| 

E|-0------------------------------------------------------------------------| 



Однообразные мелькают,
Всё с той же болью, дни мои,
Как будто розы опадают
И умирают соловьи

Но и она печальна тоже,
Мне приказавшая любовь,
И под её атласной кожей,
И под её атласной кожей
Бежит отравленная кровь,
     F          H7         Em-Em/G-F#-F-Em
Бежит отравленная кровь...

 
Последние комментарии

"Очень понравилась песня!!!! 👍
 

"Виктор Кто автор слов и музыки???"
 

"С праздником!"
 

"Песня СУПЕР!!!!"
 

"У меня есть поэтический перевод данной песни и ещё нескольких вещей Песняров. Можно прочитать в творческой группе ВК и на Стихи.ру (легко находится через поисковик)"
Статистика

Онлайн всего: 82
Гостей: 82
Пользователей: 0
Вход на сайт