Accordium Delectus Подборка аккордов
 
Главная > Н > Носков Николай > Узнать тебя в толпе

Николай Носков (Gorky Park): Узнать тебя в толпе




Вступление (примерный вариант):

E|----------0-0-0-----------0-0-0-----------0-0-0----0--3-1-----------------|

H|-------0---------------0---------------0---------2-0--0-0-----------------|

G|-----0---------------0---------------2-------------1--1-1-----------------|

D|---2---------------2---------------3--------------------------------------|

A|-0---------------0---------------5----------------------------------------|

E|-------------------------------------------------0------------------------|

 

 

E|----------0-0-0-----------0-0-0-----------0-0-0-----------------------0---|

H|-------0---------------0---------------0-------------3---3---1------------|

G|-----0---------------2---------------2-----------4-------4---2--1-0-------|

D|---2---------------2---------------2---------------------2---2------------|

A|-0-----------------------------------------------------------0------------|

E|-----------------2---------------1---------------4-------4----------------|


Dm7              E7                          
Минута, вечность, час...
Am               F#m7-5           
Мы встретимся сейчас
Fmaj7                E7/G#          Am     Am7  
В одном из тысячи мгновений

Dm7             E7                  
Пересеклись пути, 
C6               F#m7-5       
Чтоб дух перевести
Fmaj7                  E7                    Am     Am7  
Случайных нет в судьбе прозрений

Минута, вечность, час 
Вновь окружают нас,
Мелькая в бездне отражений

Опомниться успеть, 
Во все глаза смотреть,
Как ты выходишь вдруг из тени

Припев:

                Dm7       E7      Am     F#m7-5 
Узнать тебя в толпе, знакомое лицо,
                   Fmaj7     E7                       Am     Am7
Узнать тебя в толпе, не встретив взглядом
               Dm7      E7       Am             F#m7-5
Узнать тебя в толпе, как камешек в песке,
                                  Fmaj7   E7sus4     E7     Am     A7sus4 A7sus2
В душе всё о-о-оживёт, когда ты рядом


Минута, вечность, час
Средь одиноких фраз
И непонятных побуждений

Но в хаосе успеть
Обнять тебя посметь,
Назвать наш день, как день рождения

Припев.

Fmaj7  E7/G#              Am      Am7               
Когда ты рядом...

Проигрыш: Fmaj7  E7/G#  Am  Am7

Fmaj7             A7                        
А мы живём лишь раз,
Dm7(1)           D7/F#                      
Один у нас рассказ:
Fmaj7                       E7/G#              Am     Am7  
Печально и смешно - то жар, то холод

Горит звезда в ночи,
В руке твоей ключи,
Ты знаешь, как устроен город

Проигрыш (примерный вариант): Asus2  Fmaj7  B  Hm7  E-9

Припев:

Узнать тебя в толпе, знакомое лицо,
Узнать тебя в толпе, не встретив взглядом
Узнать тебя в толпе, как камешек в песке,
                        Fmaj7  E7sus4     E7    Am     F#m7-5
В душе всё о-о-живёт, когда ты рядом
Fmaj7  E7sus4      E7    Am      F#m7-5          
Когда ты рядом...
Fmaj7  E7sus4      E7    Am      F#m7-5          
Когда ты рядом...

Окончание: Fmaj7  E7sus4 E7  Am

Примерный вариант боя:

 


 
Последние комментарии

"Чудесная песня!!! Огромное спасибо!!!"
 

"Для гармонии нет нот???"
 

"Теперь и в моем репертуаре !"
 

"Да очень мало осталось певцов и поэтов патриотов воспевающих о жизни на селе, молодец В Семин!!"
 

"До слёз...буквально, в прямом смысле..."
Статистика

Онлайн всего: 26
Гостей: 26
Пользователей: 0
Вход на сайт