Accordium Delectus Подборка аккордов
 
Главная > Н > Ночные снайперы > Разбуди меня

Ночные снайперы: Разбуди меня



Смотреть в тональности Am

Вступление:

Cm                           Fm             G#        G         

E|-------------------------------------------------------------|

H|-------4--4-----------4--4-----------6--6-----------6--6>8---|

G|-----------------------------------------------------------7-|

D|-5--5--------3--5--5--------5--6--6--------6--6--6-----------|

A|-------------------------------------------------------------|

E|-------------------------------------------------------------|


Cm            D#             Fm             G#        G         

E|-------------------------------------------------------------|

H|-------4--4-----------4--4-----------6--6-----------6--6>8---|

G|-----------------------------------------------------------7-|

D|-5--5--------3--5--5--------5--6--6--------6--6--6-----------|

A|-------------------------------------------------------------|

E|-------------------------------------------------------------|


        Cm                                                  G
Разбуди меня, искупай в самой чистой воде
                                             Fm
Глаза и ладони, нет лучше нигде,
                                             D#
И качается мост между мной и тобой...

Разбуди меня поцелуем полыни и звёзд!
Я парю в этом танце, пленительно в рост,
И взрывается мост между мной и тобой

Припев:

Cm                        
Навзничь упавшие,
Насмерть пропавшие...
Fm                       
Нет стыда у любви,
 G#                    G
Запретов не может быть!

Cm                             
Парим друг над другом мы,
D#               
Кружим самолётами -
Fm                               D#                   
Этим эфиром только и можно дышать,
 Fm                                              G    
В этих движениях только и стоит жить!


Разбуди меня... Не искала, но всё же нашла!
Дышу на свободе, тоска умерла
И не стоит того, чтобы долго о ней

Разбуди меня, "завтра" нас не оставит в живых,
Наше время - уже одно на двоих,
И горят фонари, и свободен тоннель...

Припев.

G#
Разбуди меня...
           Cm        Cm7
Разбуди меня...
                  G#         Cm   G
Разбуди меня...

Проигрыш:

Cm                           Fm             G#        G         

E|-------------------------------------------------------------|

H|-------4--4-----------4--4-----------6--6-----------6--6>8---|

G|-----------------------------------------------------------7-|

D|-5--5--------3--5--5--------5--6--6--------6--6--6-----------|

A|-------------------------------------------------------------|

E|-------------------------------------------------------------|


Припев.

Разбуди меня!

Бой на гитаре (примерный вариант):

 


 
Последние комментарии

"Для гармонии нет нот???"
 

"Теперь и в моем репертуаре !"
 

"Да очень мало осталось певцов и поэтов патриотов воспевающих о жизни на селе, молодец В Семин!!"
 

"До слёз...буквально, в прямом смысле..."
 

"Спасибо"
Статистика

Онлайн всего: 38
Гостей: 38
Пользователей: 0
Вход на сайт