Accordium Delectus Подборка аккордов
 
"
Главная > Н > Новый день > Опять на сердце тоска

Иван Курнаев и группа Новый день: Опять на сердце тоска


Оригинальная тональность - Bm


Вступление (примерный вариант):


E|-------0----1-0--------------------5------5------5-|

H|-----1----1------3-1-3--1--------5------5------5---|

G|---0---------------------------5------5------5-----|

D|---------------------------------------------------|

A|-3---------------------------0---------------------|

E|---------------------------------------------------|

 

E|-------1------3------1---------------3------3------3-|

H|-----1------1------1----1----------0------0------0---|

G|---2------2------2--------2------0------0------0-----|

D|-0---------------------------------------------------|

A|-----------------------------------------------------|

E|-------------------------------3---------------------|

 

E|-----------0>1>0------------------------3----------3--1------------------------|

H|---------1--------1------------0>2>0--2----------1------1------------3-1-0-----|

G|-------0------------0--------2-----------------2----------2--------0-------2-0-|

D|----------------------0----------------------0-------------------0-------------|

A|---2-3---------------------0---------------------------------------------------|

E|-3-------------------------------------------------------------3---------------|

 

E|-------0>1>0------------------------3----------3--1------------------------|

H|-----1--------1------------0>2>0--2----------1------1------------3-1-0-----|

G|---0------------0--------2-----------------2----------2--------0-------2-0-|

D|------------------0----------------------0-------------------0-------------|

A|-3---------------------0---------------------------------------------------|

E|-----------------------------------------------------------3---------------|


C               Am   
Высоко над землёй
Dm7             G    
Пролетел самолёт,
C            Am           
Пеpедал привет от тебя,
Dm7               G   
Помахав мне крылом

C                  Am          
И я живy здесь который год,
    Dm7       G                C 
Hо мне не хватает друзей и тепла,
        Am              Dm7
И новых писем давно yже нет,
                  G                 Am  Em  F
А те, что были - сгорели до тла

   G(3)               C       Am   Dm7
И опять на сердце тоска-а-а, а-а, а-а,
G                     C  
Опять на сердце тоска

Проигрыш: C  Am  Dm7  G - 2 раза

C             Am     
Ты читала молитвы,
  Dm7                 G  
Похожие на визг тормозов,
C                Am    
И пела песни о том,
Dm7                        G    
Что даст нам завтрашний день

C                Am  
И мы с тобою yшли
     Dm7                 G  
По дороге прозрачных снегов,
C               Am             
А за спиной остались светить
Dm7          G    
Маяки городов

Am  Em  F    G(3)               C       Am   Dm7          
И опять на сердце тоска-а-а, а-а, а-а,
G                     C  
Опять на сердце тоска

Проигрыш: C  Am  Dm7  G - 3 раза C  Am  Dm7

G                     C  
   Опять на сердце тоска...

Примерный вариант боя:

№1


 
Поделись с друзьями:
 
 
Последние комментарии

"Слова не те"
 

"уаропоряяяяяяяяяяя"
 

"хорошо"
 
Стефания Детковская «Слава: Расскажи мне, мама

"Красивая песня"
 

"Песня моей юности! В конце 60-х она звучала из всех открытых окон и из транзисторов в руках у ребят!"
Настройка гитары
1-ая струна E (ми)  

2-ая струна H (си)  

3-я струна G (соль) 

4-ая струна D (ре) 

5-ая струна A (ля) 

6-ая струна E (ми) 
Статистика

Онлайн всего: 64
Гостей: 64
Пользователей: 0
Вход на сайт