Accordium Delectus Подборка аккордов
 

Нурлан Онербаев: Анашым



В оригинале на пол-тона ниже (G#m)

Вступление (примерный вариант перебора):

Am
E|-------------------------------------------------|
H|-------1-----------1-----------1-----------1-----|
G|-----2---2-------2---2-------2---2-------2---2---|
D|---2-------2---2-------2---2-------2---2-------2-|
A|-0-----------0-----------0-----------0-----------|
E|-------------------------------------------------|

Am                             
Шет жyрсем сагынарым
 Am                      Dm  
Жабыксам шагынарым
Dm                      F   
Анашым бiр озiнсiк
  F         E   
Табынарым

Припев:

Am                                    
Анашым шалкын кyлсен
Am                          F   
Алдымда yзак журсен
   A7                        Dm
/Жyрегiм жыр толгайды
 G7                      C 
Конiлiм ортаймайды
E                      Dm 
Анасы бар адамдар
E                            Am 
             Ешкашан картаймайды/ - 2 раза


Yшырган сyнкарынмын
Кияга шыркарынмын
Бэйгеге озiн коскан
Тyлпарынмын

Припев.

Проигрыш:

E|-------------------------------------------------|
H|-------1-----------1-----------1-----------0-----|
G|-----2---2-------2---2-------2---2-------1---1---|
D|---2-----------0-----------0-------0---2-------2-|
A|-0-----------------------------------------------|
E|-----------3-2---------2-1-----------0-----------|

E|---------------------------------------------0---|
H|-------1-----------1-----------1-----------0-----|
G|-----2---2-------2---2-------2---2-------1-------|
D|---2-----------0-----------0-------0---2---------|
A|-0-----------------------------------------------|
E|-----------3-2---------2-1-----------0-----------|

Корганын озiн деймiн
Жан дауа созiн деймiн
Анашым сенi ойласам
Dm           E  
Коз iлмеймiн

Припев :

Анашым шалкын кyлсен
Алдымда yзак журсен
/Жyрегiм жыр толгайды
Конiлiм ортаймайды
Анасы бар адамдар
Ешкашан картаймайды/ - 3 раза

Окончание:

Am                      Am6
E|-------------------------2--|
H|-------1-----------1-----1--|
G|-----2---2-------2---2---2--|
D|---2-------2---2-------2-2--|
A|-0-----------0-----------0--|
E|----------------------------|
 


 
Последние комментарии

"Супер"
 

"хороший разбор. респект"
 

"СУПЕР!!!"
 

"очень нравится эта песня..."
 

"Я не поняла??? Это Шпаликов??? Это стихи Бориса Рыжего!"
Статистика

Онлайн всего: 43
Гостей: 43
Пользователей: 0
Вход на сайт