Accordium Delectus Подборка аккордов
 

Океан Ельзи: Мить



          Dm                   A7sus4/E
Напиши на чужому конверті
           A7                     Dm
Те, що так у листі не згадав
         Dm                  A7sus4/E
І за крок до відважної смерті
            A7                          Dm 
Будь таким, яким Бог тебе знав

      Gm                           A7 
І поглянь, як навколо світає;
       Dm          A7            B   
І як сніг неймовірно блищить
         Gm                       A7
Не спіши, най вона зачекає
      Dm      
Ще мить...


Пригадай той садок коло хати,
Де плекав свої мрії малим
І де читав перед сном тобі Тато,
А ти - сидів коло вогнища з ним

І поглянь, як навколо світає,
І як сніг неймовірно блищить
Не спіши, най вона зачекає
Ще мить...


Поверни своє перше кохання -
Най душа, як тоді защемить
Посміхнись ти для неї востаннє -
Краще так, так хоч менше болить

І поглянь, як навколо світає. 
І як сніг неймовірно блищить
Не спіши, най вона зачекає
Ще мить...

Проигрыш:

      Dm          A7sus4/E      A7             Dm  

E|------------------------------------------------|

H|------------------------------------------------|

G|------------------------------------------------|

D|-7-8-7----7-8-7-5---5-5----5-7-5----5-7-5-------|

A|------------------8-----------------------8-7-8-|

         E|------------------------------------------------| - 2 раза

      Gm               A7        Dm     A7       B  

E|-------------------------------------------------|

H|--------------------------------6----------------|

G|-7-9-7----7-9-7--7-9-6-6----7-9----9-7-6--7--9-7-|

D|-------------------------------------------------|

A|-------------------------------------------------|

E|-------------------------------------------------|

      Gm              A7       Dm                   

E|-------------------------------------------------|

H|-------------------------------------------------|

G|-7-9-7----7-9-7--7-9-6-6----7-7------------------|

D|-------------------------------------------------|

A|-------------------------------------------------|

E|-------------------------------------------------|



Напиши на простому конверті
Те, що так у житті не сказав
І за крок до відважної смерті -
Будь таким, яким Бог тебе знав

І поглянь, як навколо світає,
І як сніг неймовірно блищить
Не спіши, най вона зачекає
Ще мить...

        Gm                       A7
Потерпи, най вона зачекає
     Dm    
Ще мить...
         Gm                          A7   
Не спіши, вже весна наступає -
                 Dsus2
За мить...
 
Последние комментарии

"Исковерканы текст и мелодия. Переделана под блатную. Из мажора - в минор?"
 

"Супер песня!Я обожаю!"
 

"Шикарная песня, шикарное исполнение"
 

"выше сяких похвал. почему не издана, только на виниле, который запретили."
 

"круто"
Вход на сайт