Accordium Delectus Подборка аккордов
 
Главная > Ш > Шак Олег > Зонтики

Олег Шак: Зонтики


Вступление: Dm  Gm  A7  Dm  B  Em7-5  A7

Dm                          Gm7    A7       
Город этот выдумал один художник,
Dm                                   Gm7 A7     
Люди в нём не знали, что такое дождик
 Gm7                C7               F              
Просто вот не знали, что такое дождик,
Em7-5                           A7             
Вот какие люди жили в городе том

Город этот выдумал один художник,
Люди в нём не знали, что такое дождик
Лишь один чудак, в белый плащ одетый,
Em7-5                             A7    Dm         
Продавал там зонтики зимой и летом...

Припев:

 Dm            Gm    A7       
Господа, купите зонтик,
Dm                  Gm       A7      
Белый зонтик, красный зонтик,
Gm7    C7          F         B         
Синий зонтик, жёлтый зонтик -
Em7-5                       A7     Dm  
Может пригодится в жизни вам

Господа, купите зонтик,
Белый зонтик, красный зонтик,
Синий зонтик, жёлтый зонтик -
Может пригодится в жизни вам


Были там домишки, все из пластилина,
Из пустых коробочек автомобили
И не знали никакой ангины,
Маленькие люди жили в городе том

Маленькие были у людей заботы —
Шли они в театр, и в кино с работы
Вечером в подъезде целовался кто-то.
Вот какие люди жили в городе том

Припев.

Переход на 1 тон (на 2 лада) выше (Em)

 Em                                Am7     H7     
Маленькое небо как-то вдруг промокло,
   Em                                  Am7    H7   
В маленьких домишках задрожали стёкла
 Am7                 D7     G                   
И вокруг всё сразу стало мокрым,
  Am/F#                         H7          
И все схватили насморк в городе том

Вспомнили тут люди о торговце странном,
Бросились искать его по всем бульварам
Hо пропал торговец со своим товаром,
 Am/F#                             H7         Em
И лишь осталась песенка в память о нём


Припев:

 Em             Am   H7       
Господа, купите зонтик,
Em                  Am       H7      
Белый зонтик, красный зонтик,
Am7    D7         G         C         
Синий зонтик, жёлтый зонтик -
Am/F#                      H7     Em  
Может пригодится в жизни вам

Господа, купите зонтик,
Белый зонтик, красный зонтик,
Синий зонтик, жёлтый зонтик -
Может пригодится в жизни вам

    F#m7                        H7     Em    
    Может пригодится в жизни вам...

Примерный вариант перебора:


E|--------1-----1-------------3-----------0-----------1-----1-------------3-----------0-|

H|------3---3-----3---------3-----------2-----------3---3-----3---------3-----------2---|

G|----2-------2-----------3-----------0-----------2-------2-----------3-----------0-----|

D|-0-------------------------------------------0----------------------------------------|

A|---------------------------------0-------------------------------------------0--------|

E|---------------------3-------------------------------------------3--------------------|



E|--------3-----------0-----------1-----1-------------3-----3-------------0-----0-------|

H|------3-----------2-----------1---1-----1---------3---3-----3---------2---2-----2-----|

G|----3-----------3-----------2-------2-----------3-------3-----------0-------0---------|

D|-------------------------3-------------------2----------------------------------------|

A|-------------3---------------------------------------------------0--------------------|

E|-3------------------------------------------------------------------------------------|


E|--------1-----1-------------3-----------0-----------1-----1-------------3-----------0-|

H|------3---3-----3---------3-----------2-----------3---3-----3---------3-----------2---|

G|----2-------2-----------3-----------0-----------2-------2-----------3-----------0-----|

D|-0-------------------------------------------0----------------------------------------|

A|---------------------------------0-------------------------------------------0--------|

E|---------------------3-------------------------------------------3--------------------|



E|--------3-----------0-----------1-----1-------------3-----------0------1--------------|

H|------3-----------2-----------1---1-----1---------3-----------2--------3--------------|

G|----3-----------3-----------2-------2-----------3-----------0----------2--------------|

D|-------------------------3-------------------2-------------------------0--------------|

A|-------------3-------------------------------------------0----------------------------|

E|-3------------------------------------------------------------------------------------|

Примерный вариант боя:



 
Последние комментарии

"Реклама одолела"
 

"сильная песня"
 

"👍"
 

"Сила"
 

"Браво!"
Вход на сайт