Accordium Delectus Подборка аккордов
 
Главная > З > Завьялов Олег > Верни назад мою любовь

Олег Завьялов (Синяя птица): Верни назад мою любовь

(слова и музыка Сергея Дроздова)
 


Вступление (примерный вариант перебора):

   H7             Dm6      E     Asus2                      
E|-------------------------------------------------------0-|
H|-------0-------0-------0-------0-------0-------0-------0-|
G|-----2---2---2-------2-------1-------2---2---2-------2---|
D|---1-------1-------0-------2-------2-------2-------2-----|
A|-2-------------------------------0---------------0-------|
E|-----------------1-------0-------------------------------|
   H7             Dm6       E      Asus2                      
E|-----------------------------------------0-------0-------|
H|-------0-------0-------0-------0-----------0---0---------|
G|-----2---2---2-------2-------1---------2-----2-----------|
D|---1-------1-------0-------2---------2-------------------|
A|-2---------------------------------0---------------------|
E|-----------------1-------0-------------------------------|
                       Верни назад мою любовь...            

                   E           Asus2            A7sus2
Верни назад мою любовь,
                    Dadd9
Верни мне небо синее
                           Dm6        E
Я, как слепой, иду туда,
                                 Amadd9  Am9
Где был самим собой

                                D7/F#   F#dim
Твоя душа вся в инее,
                Dm6
Уж снегом запорошена,
                   E
Моя ж на землю брошена,
                     Asus2
Растоптана тобой


Отдай назад мне то тепло,
Ту нежность, что дарил тебе,
И как случиться так могло,
Что ты в моей судьбе

Играешь роковую роль
Молю тебя, за всё прости,
Не мучь меня и отпусти,
                       H7
Себя забыть позволь

Проигрыш=Вступление.

Верни назад мою любовь,
Верни мне небо синее
И не играй в моей судьбе
Всю ту же злую роль,

Которой наслаждаешься
От моего бессилия,
Ведь я ещё живу тобой,
               Amadd9
Ещё дышу тобой...
 


 
Последние комментарии

"Володья Путен правит на Руси. Всё хорошо при нём кого ты не спроси - Олимпиады проводил, В сакральные места ходил и террористов он в сортире замочил. Но вот когда его немножечко того Тогда узнаем мы всю правду про него - Что из бюджета воровал И с Украиной воевал, И экономике при нём пришёл обвал..."
 

"Классно!!! Несколько раз подряд слушала, нравится песня и исполнение. Спасибо."
 

"Жаль,раньше не слышала эту песню,теперь буду петь про 60 лет.."
 

"Душевно..!"
 

"Жаль нет минусовки ."
Статистика

Онлайн всего: 29
Гостей: 29
Пользователей: 0
Вход на сайт