Accordium Delectus Подборка аккордов
 
Главная > К > Качанова Ольга > Поцелуй под зонтом

Ольга Качанова: Поцелуй под зонтом

(стихи Ольги Качановой, музыка Вадима Козлова)
 


Вступление (примерный вариант перебора): 

Am+5     Am      Am7           Dm6add9                     
E|-----0---1-------0---------------0---------------0------------------------|
H|-4-----------1-------1---1---------------3---------------3-------0--------|
G|-----------2---2---2---2-----2-------2-------2-------2-------2-------2----|
D|---------------------------2---2---2---2---3---3---3---3---3---3---3---3--|
A|-0-------0-------------------------------2--------------------------------|
E|-------------------------3------------------------------------------------|
E7                             Am                       Am+5     Am     
E|---------0-------------------------------0-----------0-----1-------0-------|
H|-3---------------3-------0-------1---------------4-------------1-------1---|
G|-----1-------1-------1-------1-------2-------2---------------2---2---2---2-|
D|---2---2---2---2---2---2---2---2---2---2---2---2---------------------------|
A|---------------------------------0-------------------------0---------------|
E|-0-------------------------------------------------------------------------|
                                                Всё начнёт-----ся...

             Am+5 Am         Am7       Dm6add9
Всё начнёт---ся с поцелуя под зонтом,
                         E7                 Am    Fmaj7-5 D9
А потом... А что потом?
         Dm/F        Fmaj7-5       Dm6add9 
А потом тебя домой поманит дом,
     E7                 Am
А потом... А что потом?

-------------------------------------------------------------------

       Bmaj7-5                               A7        
А твой дом там, где женщина... Женщина
  Bmaj7-5                     A7 
Говорит, говорит, говорит,
            Dm6                       E7(2)       
Смотрит жалостно, смотрит жертвенно
           F                      G 
И в халатике синем парит

           C                        C#dim      
Как синичка, гнездо обустраивает,
           Gm7                        A7(2)
Может стул передвинуть и шкаф,
        Dm6add9               Am         Am7
И тебя это даже устраивает,
  Fmaj7-5    E    Fmaj7-5
И тебе это даже в кайф

Проигрыш:

Fmaj7-5      Esus4   E    Am         Gsus4   G       
E|-------------------------------0-----------------|
H|-------0-----------------1---------1-1-----0-----|
G|-2---2-----2-2-----1---------2-----------0-----0-|
D|---3-----3-------2-----2---2-----2-----0-----0---|
A|---------------2-----2---0-----------------------|
E|-1-----------0-----------------------3-----------|
...в кайф

Dm6add9       F-5          F7         Esus4     E   
E|-------0-----------1------------1-1-1------------|
H|-3---------3-0------------1-1-1-1-1-1-0-0-0---0--|
G|-----2-----------2-----2--2-2-2-2-2-2-2-2-2---1--|
D|---3-----3-----3-----3----1-1-1-------2-2-2---2--|
A|-2-----------------------------------------------|
E|-------------1------------1-----------2-------0--|

Знаешь ты, что без женщины, женщины,
Без её суеты и хлопот
Дом даст трещину через трещину,
Дом из дома уйдёт, пропадёт...

А бездомным нельзя быть поэтому,
Дом твой крепость, а ты крепостной
Выйдешь вечером за сигаретами
   Fmaj7-5            E               Am
И случайно столкнёшься со мной

Припев.

Мы пойдём с тобой медленно-медленно,
Будем думать, где нам ночевать,
Забредём не намеренно в мебельный
И двухспальную купим кровать

Припаркуем кровать в парке пасмурном
И уснём, не снимая пальто
Без жилья, без прописки, без паспорта,
    Fmaj7-5        E       Am
А что будет, узнаем потом

Припев.

         Am
А что потом?
А что потом?
 
Поделись с друзьями:
 
 
Последние комментарии

"Показать окорды"
 

"Удивительная, нежная песня как раз для Кати..."
 

"Володья Путен правит на Руси. Всё хорошо при нём кого ты не спроси - Олимпиады проводил, В сакральные места ходил и террористов он в сортире замочил. Но вот когда его немножечко того Тогда узнаем мы всю правду про него - Что из бюджета воровал И с Украиной воевал, И экономике при нём пришёл обвал..."
 

"Классно!!! Несколько раз подряд слушала, нравится песня и исполнение. Спасибо."
 

"Жаль,раньше не слышала эту песню,теперь буду петь про 60 лет.."
Статистика

Онлайн всего: 90
Гостей: 90
Пользователей: 0
Вход на сайт