Accordium Delectus Подборка аккордов
 
Главная > К > Кормухина Ольга > Там, в сентябре

Ольга Кормухина: Там, в сентябре

(из репертуара Валерия Леонтьева)




Вступление:

 F#m11                             Dmaj7                               

E|---------0----------------0----------------2----------------2-------|

H|-----0-------0--------0-------0--------2-------2--------2-------2---|

G|---2---2---2---2----2---2---2---2----2---2---2---2----2---2---2---2-|

D|-4----------------4----------------0----------------0---------------|

A|--------------------------------------------------------------------|

         E|--------------------------------------------------------------------| - 2 раза


F#m11         Hm7          
Там, там, в сентябре,
             C#7                Dmaj7       
Кленовый лист светился, как звезда
F#m11              H           
Там я счастлива была,
     C#7             D               
Как никогда, не буду никогда

Проигрыш: F#m  Asus2  D/F# - 2 раза

F#m                      D/F#     F#m  
Город очнулся от зимы ледяной,
  F#m                                D/F#         F#m
   Вдруг ярким стал, как на открытке цветной...
              Asus2                                   Fbas F#bas G#bas Abas G#bas F#bas E F#m  Asus2-E  Asus2 E
Только не думай, что всё э  -  то      ме  -  ня      о  -  чень радует!

Только я помню, как, лицо наклоня,
Ты говоришь мне, что не любишь меня,
И возвращается сентябрь, и опять листья падают

Припев:

Hm              F#m     
Там, там я осталась,
            Hm                F#m
Где дрожит в лужах вода,
               E                     A  
Где, как праздник, миг любой,
             C#7        Abas G#bas F#bas Fbas F#bas Fbas 
Где с тобой мы не мо  -  жем   друг   без  дру  -  га

Dbas  C#bas   Hm                   F#m       
Нав  -  сег  -  да, слышишь, осталась я
              Hm                  F#m  
В сентябре, там в сентябре,
        C#m7             F#m
Где ещё почти полдня
        E               Dmaj7               
До того, когда разлюбишь ты меня


F#m                 Hm 
Там, где ты со мной
              C#7         Dmaj7       
Стоишь, ещё лицо не наклоня,
F#m                     Hm  
Там, где дождь стеной,
             E                     Dmaj7     
Где говоришь, что любишь ты меня

Проигрыш: F#m  Asus2  D/F# - 2 раза

Лето весёлое звенит за окном,
Огромным звёздам тесно в небе ночном,
Но до сих пор я всё живу в сентябре, в том далёком дне

Знаю, на свете нет нелепей мечты,
Но сентябри вдруг перепутаешь ты,
Два сентября вдруг перепутаешь ты, и придёшь ко мне

Припев.

F#m                    Hm 
Там, там, в сентябре,
              C#7               Dmaj7         
Кленовый лист светился, как звезда
   F#m              Hm 
Была счастливой я,
               E            Dmaj7     
Как никогда не буду, никогда

Проигрыш:

 F#m11                             Dmaj7                                

E|---------0----------------0----------------2----------------2-------|

H|-----0-------0--------0-------0--------2-------2--------2-------2---|

G|---2---2---2---2----2---2---2---2----2---2---2---2----2---2---2---2-|

D|-4----------------4----------------0----------------0---------------|

A|--------------------------------------------------------------------|

E|--------------------------------------------------------------------|


F#m11                             Dmaj7

E|---------0----------------0--------2-|

H|-----0-------0--------0-------0----2-|

G|---2---2---2---2----2---2---2---2--2-|

D|-4----------------4----------------0-|

A|-------------------------------------|

E|-------------------------------------|


F#m             Hm
Там, в сентябре,
                C#7      Dmaj7               F#m 
Кленовый лист светился, как звезда

Примерный вариант боя:

 


 
Последние комментарии

"Очень понравилась песня!!!! 👍
 

"Виктор Кто автор слов и музыки???"
 

"С праздником!"
 

"Песня СУПЕР!!!!"
 

"У меня есть поэтический перевод данной песни и ещё нескольких вещей Песняров. Можно прочитать в творческой группе ВК и на Стихи.ру (легко находится через поисковик)"
Статистика

Онлайн всего: 99
Гостей: 99
Пользователей: 0
Вход на сайт