Accordium Delectus Подборка аккордов
 

Ольга Кормухина: Тоша (инструментал)




Вступление:

E|-------------------|

H|---------2---------|

G|-----2-------2-----|

D|---2---2---2---2---|

A|-------------------|

E|-3-----------------|


Основа (з раза):

E|--------------------------1----------------3----------------0-------------|

H|---------2------------3-------3--------0-------0--------1-------1---------|

G|-----2-------2------2---2---2---2----0---0---0---0----0---0---0---0-------|

D|---2---2---2---2--0-------------------------------------------------------|

A|-----------------------------------2----------------3---------------------|

E|-3------------------------------------------------------------------------|

 

E|---------1----------------0-----------------------------------------------|

H|-------1---1------------0---0--------------2----------------2-------------|

G|-----2-------2--------0-------0--------2-------2--------2-------2---------|

D|---3-----------3----2-----------2----2---2---2---2----2---2---2---2-------|

A|-0---------------------------------0----------------0---------------------|

E|------------------0-------------------------------------------------------|


E|--------------------------1----------------3----------------0-------------|

H|---------2------------3-------3--------0-------0--------1-------1---------|

G|-----2-------2------2---2---2---2----0---0---0---0----0---0---0---0-------|

D|---2---2---2---2--0-------------------------------------------------------|

A|-----------------------------------2----------------3---------------------|

E|-3------------------------------------------------------------------------|

 

E|---------1----------------0-----------------------------------------------|

H|-------1---1------------0---0--------------2----------------2-------------|

G|-----2-------2--------0-------0--------2-------2--------2-------2---------|

D|---3-----------3----2-----------2----2---2---2---2----2---2---2---2-------|

A|-0---------------------------------0----------------0---------------------|

E|------------------0-------------------------------------------------------|


E|---------1----------------3----------------0----------------1-------------|

H|-------1---1------------3---3------------1---1------------1---1-----------|

G|-----2-------2--------4-------4--------0-------0--------2-------2---------|

D|---3-----------3----5-----------5----2-----------2----3-----------3-------|

A|----------------------------------------------------0---------------------|

E|-1----------------3----------------0--------------------------------------|


E|---------1----------------0----------------0----------------0-------------|

H|-----3-------3--------0-------0----------1---1------------3---3-----------|

G|---2---2---2---2----0---0---0---0------2-------2--------4-------4---------|

D|-0-----------------------------------3-----------3----5-----------5-------|

A|--------------------------------------------------------------------------|

E|------------------0----------------1----------------3---------------------|

 

E|---------1----------------3----------------0----------------1-------------|

H|-------1---1------------3---3------------1---1------------1---1-----------|

G|-----2-------2--------4-------4--------0-------0--------2-------2---------|

D|---3-----------3----5-----------5----2-----------2----3-----------3-------|

A|----------------------------------------------------0---------------------|

E|-1----------------3----------------0--------------------------------------|

 

E|---------1----------------0-----------------------------------------------|

H|-----3-------3--------0-------0------------2----------------2-------------|

G|---2---2---2---2----0---0---0---0------2-------2--------2-------2---------|

D|-0-----------------------------------2---2---2---2----2---2---2---2-------|

A|-----------------------------------0----------------0---------------------|

E|------------------0-------------------------------------------------------|


Окончание:

E|------------------------------------------------------|

H|---------2----------------2----------------2----------|

G|-----2-------2--------2-------2--------2-------2------|

D|---2---2---2---2----2---2---2---2----2---2---2---2----|

A|-0----------------0----------------0----------------0-|

E|------------------------------------------------------|

 


 
Последние комментарии

"Очень понравилась песня!!!! 👍
 

"Виктор Кто автор слов и музыки???"
 

"С праздником!"
 

"Песня СУПЕР!!!!"
 

"У меня есть поэтический перевод данной песни и ещё нескольких вещей Песняров. Можно прочитать в творческой группе ВК и на Стихи.ру (легко находится через поисковик)"
Статистика

Онлайн всего: 107
Гостей: 107
Пользователей: 0
Вход на сайт