Accordium Delectus Подборка аккордов
 
Главная > К > Кашин Павел > Если это не ты

Павел Кашин: Если это не ты



Вариант перебора (играется вся песня):

 Dsus2                     Gm6                       
E|-------0-----0-----0~1----------3-----3-----3-----|
H|-----3---3-----3--------------3---3-----3-----3---|
G|---2-------2-----2----------3-------3-----3-----3-|
D|-0------------------------2-----------------------|
A|--------------------------------------------------|
E|--------------------------------------------------|

   A7                    Dsus2                       
E|-------0-----3-----0-----------0-----0-----0~1----|
H|-----2---2-----2-----2-------3---3-----3----------|
G|---0-------0-----0-----0---2-------2-----2--------|
D|-------------------------0------------------------|
A|-0------------------------------------------------|
E|--------------------------------------------------|

 Dsus2                                                   Gm6
Счастье, как бусина в чане холодной воды,
          A7                       Dsus2
Прошло, потеряло свой цвет
 Dsus2                                             Gm6
Мне до тебя, как до ближайшей звезды,
    A7                Dsus2
Хватит и тысячи лет

Припев:

Dsus2                                      Gm6
Мой телефон обмер, завис и остыл
       A7                               Dsus2
На высшем из уровней пустоты,
   Dsus2                                    Gm6 
/И больше неважно, кто мне звонил,
A7             Dsus2
            Если это не ты/ - 2 раза


Взвеют, как флаги надежды в остывшей войне,
В сфере потерянных, мёртвых идей
Какое мне дело, сколько сгинет людей,
Речь обо мне

Припев.
 
Последние комментарии

"Прекрасно!"
 

"50 лет эту песню слушаю и пою, 50 лет восхищаюсь"
 

"🔥Привет всё хорошо мне всё понравилось,нравится я в восторге и радуюсь наслаждаясь такой прекрасной правильной умной даже нравственной песне. Спасибо! Антон из Челябинска пока 🖐"
 

".....аккорды ложь....там увеличенные септы, девятки-ноны, 11...."
 

"Божественная песня и чудесное исполнение.. любимая песня моего сердца "
Вход на сайт