Accordium Delectus Подборка аккордов
 
Главная > К > Кашин Павел > Моя Ангел

Павел Кашин: Моя Ангел



Вступление (играется вся песня):

  Hm   Em/G   Hm   Hm/F#  Hm    Em    Hm   Hm/F#    
E|---2-2---0-0---2-2---2-2---2-2---0-0---2-2---2-2-|
H|---3-3---0-0---3-3---3-3---3-3---0-0---3-3---3-3-|
G|---4-4---0-0---4-4---4-4---4-4---0-0---4-4---4-4-|
D|-------------------------------------------------|
A|-2-----------2-----------2-----------2-----------|
E|-------3-----------2-----------0-----------2-----|

   D   F#/B   Hm    Em6  Hm/D    F#   Hm   Hm/F#    
E|---2-2---2-2---2-2---0-0---2-2---2-2---2-2---2-2-|
H|---3-3---2-2---3-3---0-0---3-3---2-2---3-3---3-3-|
G|---2-2---3-3---4-4---0-0---4-4---3-3---4-4---4-4-|
D|-0-----------------------0-----------------------|
A|-------1-----2-----4-----------------2-----------|
E|-------------------------------2-----------2-----|

   D   F#/B   Hm    Em6  Hm/D   F#    Hm  F#>Hm     
E|---2-2---2-2---2-2---0-0---2-2---2-2---2---2-----|
H|---3-3---2-2---3-3---0-0---3-3---2-2---3---3-----|
G|---2-2---3-3---4-4---0-0---4-4---3-3---4---4-----|
D|-0-----------------------0-----------------------|
A|-------1-----2-----4-----------------2-----2-----|
E|-------------------------------2---------2-------|

                   Hm         Em/G          Hm   Hm/F#
Легкомысленны девушки в мае,
                    Hm           Em         Hm  Hm/F#
Мимолётны, но так хороши,
                  D       F#/B          Hm    Em6
А за мной моя Ангел хромает,
                     Hm/D    F#         Hm  Hm/F#
Подбирая кусочки души
                  D       F#/B          Hm    Em6
А за мной моя Ангел хромает,
                     Hm/D    F#         Hm  F#>Hm
Подбирая кусочки души

И любовь моим сердцем играет,
Майский ветер сдувает с коня
Посмотри, как она замирает,
Заслоняя крылами меня
Посмотри, как она замирает,
Заслоняя крылами меня

Проигрыш=Вступление

Майский ветер покровы срывает,
И сердца, и тела леденя
Моя Ангел, гляди, простывает,
Укрывая крылами меня
Моя Ангел, гляди, простывает,
Укрывая крылами меня

Я срываю все прелести рая,
Колокольчики в сердце звенят
Посмотри, как она умирает
За меня, за меня, за меня
Посмотри, как она умирает
За меня, за меня, за меня
 
Последние комментарии

""Ласковый май" вернулся"
 

"Безумно красивая композиция"
 

"Текст не соответствует заявленному! Примите меры."
 

"Сравните с исполнением Владимир Трошина"
 

"Класс. Настоящая песня со смыслом. А то превратили женщин элегантно года возраста а старух. А мы живые и очень даже."
Вход на сайт