Accordium Delectus Подборка аккордов
 
Главная > К > Кашин Павел > Сердце в истощении

Павел Кашин: Сердце в истощении



Вступление (играется вся песня):

  Gm6      A7       Dm    Bmaj7-5   Em7-5      A7       Dm  Dm/C Bmaj7-5 Dm/A 

E|-----0--------0--------1--------0--------3--------0----1----1----0----1---|

H|-----3--------2--------3--------3--------3--------2----3----3----3----3---|

G|---3---3----0---0----2---2----2---2----3---3----0---0----2----2----2----2-|

D|-------------------0-----------------2-----------------0------------------|

A|----------0-----------------1-----------------0-------------3----1----0---|

E|-3------------------------------------------------------------------------|

  Gm6      A7       Dm    Bmaj7-5   Em7-5      A7       Dm  Dm/C Bmaj7-5 Dm/A 

E|-----0--------0--------1--------0--------3--------0----1----1----0----1---|

H|-----3--------2--------3--------3--------3--------2----3----3----3----3---|

G|---3---3----0---0----2---2----2---2----3---3----0---0----2----2----2----2-|

D|-------------------0-----------------2-----------------0------------------|

A|----------0-----------------1-----------------0-------------3----1----0---|

E|-3------------------------------------------------------------------------|


Gm6                           A7                              
Где-то взгляд померк в смущении,
Dm                  Bmaj7-5           
Где-то пыл души угас...
Em7-5                             A7                           
Чьё-то сердце в истощении
Dm   Dm/C Bmaj7-5 Dm/A
Тихо плачет среди     нас

У любви так твёрды руки,
У любви так точен глаз
Сердце, годное для муки,
Сразу видит среди нас

Все ненужные сомнения 
Облетят, как лепестки
Служит сердце в истощении
Полигоном для тоски

У любви, как и у песен,
Век не долог... Ну, да всё ж,
Кто сказал, что будет весел
Век, в котором ты живёшь?

Окончание:

  Gm6      A7       Dm    Bmaj7-5   Em7-5      A7       Dm  Dm/C Bmaj7-5 Dm/A 

E|-----0--------0--------1--------0--------3--------0----1----1----0----1---|

H|-----3--------2--------3--------3--------3--------2----3----3----3----3---|

G|---3---3----0---0----2---2----2---2----3---3----0---0----2----2----2----2-|

D|-------------------0-----------------2-----------------0------------------|

A|----------0-----------------1-----------------0-------------3----1----0---|

E|-3------------------------------------------------------------------------|

  Gm6      A7       Dm    Bmaj7-5   Em7-5      A7       Dm  Dm/C Bmaj7-5 Dm/A Dm  

E|-----0--------0--------1--------0--------3--------0----1----1----0----1------1-|

H|-----3--------2--------3--------3--------3--------2----3----3----3----3------3-|

G|---3---3----0---0----2---2----2---2----3---3----0---0----2----2----2----2----2-|

D|-------------------0-----------------2-----------------0---------------------0-|

A|----------0-----------------1-----------------0-------------3----1----0--------|

E|-3-----------------------------------------------------------------------------|

 
Последние комментарии

""Ласковый май" вернулся"
 

"Безумно красивая композиция"
 

"Текст не соответствует заявленному! Примите меры."
 

"Сравните с исполнением Владимир Трошина"
 

"Класс. Настоящая песня со смыслом. А то превратили женщин элегантно года возраста а старух. А мы живые и очень даже."
Вход на сайт