Accordium Delectus Подборка аккордов
 
Главная > С > Смеян Павел > Цветы на дорогах войны

Павел Смеян: Цветы на дорогах войны


Вступление (примерный вариант перебора):


 Gsus2               Gsus2                Em                   G   Emadd9   Em    

E|--------3-----3-------------3-----3-------------0-----0------3------2------0---|

H|------3---3-----3---------3---3-----3---------0---0-----0------0------0------0-|

G|----0-------0-----------0-------0-----------0-------0------------0------0------|

D|-------------------------------------------------------------------------------|

A|-------------------------------------------------------------------------------|

E|-3-------------------3-------------------0-------------------------------------|

  Gsus2               Gsus2                Em                   G   Emadd9   Em     

E|--------3-----3-------------3-----3-------------0-----0------3------2------0---|

H|------3---3-----3---------3---3-----3---------0---0-----0------0------0------0-|

G|----0-------0-----------0-------0-----------0-------0------------0------0------|

D|-------------------------------------------------------------------------------|

A|-------------------------------------------------------------------------------|

E|-3-------------------3-------------------0-------------------------------------|

   C                  D/F#                Hm                  Em                   

E|--------0-----0-------------2-----2-------------2-----2-------------0-----0----|

H|------1---1-----1---------3---3-----3---------3---3-----3---------0---0-----0--|

G|----0-------0-----------2-------2-----------4-------4-----------0-------0------|

D|---------------------4---------------------------------------------------------|

A|-3---------------------------------------2-------------------------------------|

E|-------------------------------------------------------------0-----------------|

    C                   C                   D                Dsus4           D      

E|--------0-----0-------------0-----0-------------2-----2-------------3-----2----|

H|------1---1-----1---------1---1-----1---------3---3-----3---------3---3-----3--|

G|----0-------0-----------0-------0-----------2-------2-----------2-------2------|

D|-----------------------------------------0-------------------0-----------------|

A|-3-------------------3---------------------------------------------------------|

E|-------------------------------------------------------------------------------|

(Цветы на дорогах войны...
Сколько радости, сколько воспоминаний
Дарили они, живые цветы,
                              На трудных дорогах войны...) - текст во время вступления

         Gsus2                         Em    G-Emadd9-Em 
На мостовой, в саду, в кювете,
           Gsus2                     Em   G-Emadd9-Em  
Повсюду – у любой черты,
  C         D/F#         Hm    Em
Мы брали город на рассвете,
        C                      D   Dsus4 D
А в городе цветы, цветы,
                G   G-Emadd9-Em
Цветы!

Припев:

F        E           Am  Am7  
Живые, тёплые, хмельны-ы-е -
         Am7         D/F#        G  G-Emadd9-Em
Цветы, куда не погляди!
F         E            Am  Am7 
И все сады, как расписны-ы-е,
Cm                   Gsus2 
И прямо в радугу входи!

Проигрыш: Gsus2  Csus2 - 2 раза

И никого – безлюдный город,
Гремят железные листы
И ни души, и лунный холод,
         C                    D   Dsus4 D
   И на безлюдии – цветы...

И сколько б мне не жить на свете,
С какой не падать высоты,
Мне всех других дороже эти
       C                 D  Dsus4 D
Незащищённые цветы,
                G   G-Emadd9-Em
Цветы!

Припев:

Живые, тёплые, хмельные -
Цветы, куда не погляди!
И все сады, как расписные,
         Cm                      G  G-Emadd9-Em
И прямо в радугу входи!

Проигрыш: F  E  Am  Am7  Am7  D/F#  G  G-Emadd9-Em

F          E            Am  Am7  
И все сады, как расписны-ы-е,
Cm                   Gsus2 
И прямо в радугу входи!

Окончание: Gsus2  Csus2 - 2 раза G

 
Последние комментарии

"Мощь! Такая переданная энергия способствует и мне взять и что нибудь "выдать"! Инструкцию Мехвод, Карусели, Если ты герой -слыхали? ... На бёдрах две наколки, На шее медный крест..."
 

"Спасибо за песню"
 

"Отличная песня и исполнение !!!!!!"
 

"Последний куплет неудачный. Смотрите сами: Только павший лист, играя, Без печали гонят ветры. А любовь, как розы в мае, Не бывает без ответа Мне попадался вариант получше: Если сердце замирает, Значит песня – не допета, А любовь, как грозы в мае, - Вот она была - и нету. припев Осень чувства остужает, Оставляя без ответа. Без любви любовь бывает, Только все неправда это! припев"
 

"Вулканы и море там B аккорд совсем не звучит, скорее Dm"
Вход на сайт