Accordium Delectus Подборка аккордов
 

Песни под гитару: Стар я стал


Смотреть в тональности Em


Вступление: 


E|-0-------------------0------------------|

H|------4----2----4---------4----2----4---|

G|---4----4----4----4----4----4----4----4-|

D|----------------------------------------|

A|----------------------------------------|

E|----------------------------------------|

E                       H               
Ты злишься, что я так глух,
A                     H                  
Когда ты вздыхаешь вслух,
E                H                     
Когда ты даёшь мне знать,
A                     H           
Что будешь одна опять

Припев:

        A                  H                    
Прости, но я так устал,
E              E    H  C#m           
Я стар слишком рано стал
C#m H A                    H                          
Устал я цветы дарить,
   A                         H           
   Стар я стал, чтоб тебя любить...

Проигрыш:


E|-0-------------------0------------------|

H|------4----2----4---------4----2----4---|

G|---4----4----4----4----4----4----4----4-|

D|----------------------------------------|

A|----------------------------------------|

E|----------------------------------------|



Но если б другим я был,
Я б не был тебе так мил
И ты б не вздыхала вслед,
О том, что я лучше всех

Припев.

Окончание:

                                                                                                      E                     

E|-0-------------------0-------------------0-|

H|------4----2----4---------4----2----4----0-|

G|---4----4----4----4----4----4----4----4--1-|

D|-----------------------------------------2-|

A|-----------------------------------------2-|

E|-------------------------------------------|

 


 
Последние комментарии

"а где найти ноты к этой песне"
 

"Исполнение просто супер,нет слов,с душой тревогой в душе!!!Можно слушать и слушать???"
 

"Спасибо. Класс!"
 

"класс"
 

"Круть😃😃😃"
Статистика

Онлайн всего: 124
Гостей: 124
Пользователей: 0
Вход на сайт