Accordium Delectus Подборка аккордов
 

Песни под гитару: Связисты



В оригинале на пол-тона ниже (G#m)


Вступление:

  Am            Dm6       E7            Am       

E|----------------------------------------------|

H|-5--3----5-3---5--3------3-------3------------|

G|------5------5------4-------5-4----5-4-5--4-2-|

D|----------------------------------------------|

A|----------------------------------------------|

E|----------------------------------------------|

  Am          Dm6          E7           Am      

E|----------------------------------------------|

H|-5--3----5-3---5--3------3-------3------------|

G|------5------5------4-------5-4----5-4-2------|

D|----------------------------------------------|

A|----------------------------------------------|

E|----------------------------------------------|


                Am                Dm6  
Пускай твердят про нашу связь:
                  E7                       Am   
Она, мол, в дождь, она, мол, в грязь,
           Am       A7    Dm6
Она с катушкой на спине,
               E7                Am
Хоть по зиме, хоть по весне

  Dm6         E7   
А мы не унываем,
Am                
Нас гнут, а мы крепчаем
        A7                Dm6  
Ведь мы прекрасно знаем,
    G7              C
Зачем и для чего

      A7                   Dm6  
Бог создал связь на свете,
        G7                C     
Жизнь облегчив нам этим,
 Dm6             Am     
А за "базар" ответим,
     E7               Am
Поверьте, если что

Бог создал связь на свете,
Жизнь облегчив нам этим,
А за "базар" ответим,
Поверьте, если что


А ты связист, а ты связист,
Пусть не плечист, пусть неказист,
Но без тебя, но без тебя
Оглохнет родина моя

А мы не унываем,
Мы не переживаем
Ведь мы прекрасно знаем
Что где закоротит

Для пользы дела, чтобы
(Век не видать свободы!)
Различные народы
Смогли поговорить

Для пользы дела, чтобы
(Век не видать свободы!)
Различные народы
Смогли поговорить


А наша связь, а наша связь
К каким высотам поднялась!
И ничего, едрёна мать,
А без пол-литра не понять!

А мы не унываем,
Звоним, лудим, паяем
И даже выпиваем, 
Но здесь есть свой расчет

Чтоб раны не болели, 
Чтоб души не старели,
Ведь лишь в здоровом теле
Здоровый дух живёт!

Чтоб раны не болели, 
Чтоб души не старели,
Ведь лишь в здоровом теле
Здоровый дух живёт!


А ну, давай, а ну, давай,
За связь полнее наливай!
Пускай узнает вся страна
Связистов наших имена

Так выпьем за связистов,
Монтёров, программистов,
Чтоб б нам в пути тернистом
Эфир был без помех

Чтоб вволю пили, ели, 
Могли, когда хотели, 
А в каждом новом деле 
Кураж был, да успех

Окончание=Вступление

Бой на гитаре (примерный вариант):

 


 
Последние комментарии

"а где найти ноты к этой песне"
 

"Исполнение просто супер,нет слов,с душой тревогой в душе!!!Можно слушать и слушать???"
 

"Спасибо. Класс!"
 

"класс"
 

"Круть😃😃😃"
Статистика

Онлайн всего: 92
Гостей: 92
Пользователей: 0
Вход на сайт