Accordium Delectus Подборка аккордов
 
"
Главная > П > Пигмалион > Гитара-душа

Пигмалион: Гитара-душа




Вступление (примерный вариант):

E|------13-------12-------10------8------5------3------1-0-----|

H|---------------------------------------------------------3-1-|

G|---14-------12-------10-------9------5------3------2---------|

D|-0--------0--------0--------0------0------0------0-----------|

A|-------------------------------------------------------------|

         E|-------------------------------------------------------------| - 2 раза

 

E|-1-----0-----1-----0---0-1-----0-----1-|

H|---3-----3-----3-----3-----3-----3---2-|

G|-----2-----2-----2-----------2-----2-3-|

D|-------------------------------------0-|

A|---------------------------------------|

E|---------------------------------------|


                           Gm A7                           Dm   
В этой жизни хмельной   мне встречалось немало
                   Gm7          C           Fmaj7
Обаятельных женщин и верных друзей
Cm   D      Gm       A7           B       
Они уходили, и только гитара
Gm                      Dm          Gm     A7  Dm     
Единственной спутницей ста-а-ла моей
Cm   D      Gm        C        Fmaj7     
Они уходили, и только гитара
Gm                     Dm           Gm    A7  Dm    
Единственной спутницей ста-а-ла моей


Я ей доверяю, как лучшему другу,
И горечь ошибок, и вечный полёт,
И радость, и самую страшную муку,
Я знаю, она непременно поймёт
И радость, и самую страшную муку,
Я знаю, она непременно поймёт

Проигрыш: Cm  D  Gm  Gm/B  Dm  A7  Dm

Ей много не надо – лишь нежные руки,
Что струны ласкают её не спеша
Она безрассудна, и только в разлуке
Отчаянно плачет гитара-душа
Она безрассудна, и только в разлуке
Отчаянно плачет гитара-душа


Я ей благодарен за каждую песню,
За каждый порыв, что сжигает меня
И в жизни навеки мы связаны вместе,
Святая подруга, гитара моя
И в жизни навеки мы связаны вместе,
Святая подруга, гитара моя...

Проигрыш: Cm  D  Gm  Gm/B  Dm  A7

Окончание=Вступление
 
Поделись с друзьями:
 
 
Последние комментарии

"Здравствуйте! В тексте написан аккорд Gm/E, а при наведении мышкой выскакивает Em7-5. Что должно быть на самом деле?"
 

"Очень красивая песня"
 

"Понимаю песню."
 

"Амэнь!"
 

"В Иркутске опять дождь и монотонный и ленивый)))"
Настройка гитары
1-ая струна E (ми)  

2-ая струна H (си)  

3-я струна G (соль) 

4-ая струна D (ре) 

5-ая струна A (ля) 

6-ая струна E (ми) 
Статистика

Онлайн всего: 29
Гостей: 29
Пользователей: 0
Вход на сайт