Accordium Delectus Подборка аккордов
 

Полина Агуреева: Колечко



Вступление (примерный вариант перебора):

      F#          H7           C          Am          H7          Em                        

E|-----------2-----------2-----------0-----------0-----------2-----------0-----------0-----|

H|---------2---2-------0---0-------1---1-------1---1-------0---0-------0---0-------0---0---|

G|-------3-------3---2-------2---0-------0---2-------2---2-------2---0-------0---0-------0-|

D|-----------------------------------------------------------------2-----------------------|

A|-----------------2-----------3-----------0-----------2-----------------------2-----------|

E|-----2-----------------------------------------------------------------------------------|

 

E|-8-7-6-----------5-------7-5-------------------------------------------------------------|

H|-----------------------------8-----------8-----------7-------8-7-5-----------------------|

G|-----------------------------------------------5---8-------------------------------------|

D|-----------------------------------------------------------------------------------------|

A|-----------------------------------------------------------------------------------------|

E|-----------------------------------------------------------------------------------------|


  Em                     F#                      
Пролитую слезу из будущего принесу,
   H7                Em    
Вставлю её в колечко
Em-Em7-C                                 Am        F#           
Будешь гулять одна - надевай его на,
H7                             Em          
На безымянный, конечно

Припев:

Em                     Em7   C                           
 А у других мужья   -   перстеньки из рыжья,
         F#      H7         Em     Em7 
Серьги из перламутра
C                       Am              F#
А у меня - слеза, жидкая бирюза,
H7                      Em         
Просыхает под утро



     Em        Em7      C  H7              Em  
Носи перстенёк, пока виден издалека,
Em-Em7-C        F#          H7            
Потом другой подберётся
C                       Am                F# 
А надоест носить, будет что уронить
 H7                  Em    
Ночью на дно колодца

Припев.

Пролитую слезу из будущего принесу,
Вставлю её в колечко
Будешь гулять одна - надевай его на,
На безымянный, конечно
 


 
Последние комментарии

"песня норм"
 

"Я бы попробовал её спеть"
 

"Пожалуйста, сделайте мобильное приложение вашего чудесного сайта. На телефоне аккорды не открываются в яндексе"
 

"Душевно"
 

"Да уж"
Статистика

Онлайн всего: 118
Гостей: 118
Пользователей: 0
Вход на сайт