Accordium Delectus Подборка аккордов
 
Главная > P > Puhdys > Sehnsucht

Puhdys: Sehnsucht



Вступление (играется вся песня):

E|---------------------------------|
H|---------------------------------|
G|-----0-----0-----0---------------|
D|---4-----2-----0-------0---0---0-|
A|-5-----3-----2-------3---2---0---|
         E|-------------------3-------------| - 4 раза

E|---------------------------------|
H|---------------------------------|
G|-----0-----0-----0---------------|
D|---4-----2-----0-------0---0---0-|
A|-5-----3-----2-------3---2---0---|
         E|-------------------3-------------| - 2 раза
Sehn---sucht                                     

E|---------------------------------|
H|---------------------------------|
G|-----0-----0-----0---------------|
D|---4-----2-----0-------0---0---0-|
A|-5-----3-----2-------3---2---0---|
         E|-------------------3-------------| - 2 раза


Als du ein Kind noch warst und viel zu klein
Wünschtest du dir so sehr erwachsen zu sein
Du warst Seemannpilot und Feuerwehrmann
Und du forschtest nach schätzen die unbekannt

Sehnsucht, Sehnsucht

Deine Fantasie brachte dich übers Meer
irgendetwas in dir verlangte so sehr
wenn du traurig warst nach Geborgenheit
und die Welt war so groß wie die Ewigkeit

Sehnsucht, Sehnsucht

Als du älter warst und die Liebe kam
ein verlangen war da dir die Kindheit nahm
und Enttäuschung dann dir das herz zerbrach
War die Seele krank als sie zu dir sprach

Sehnsucht heißt auch gefangen sein
von leiden und Hoffnung schwer wie ein sein
wenn ein Traum der nicht in Erfüllung geht
und der trotzdem in dir immer weiterlebt

Sehnsucht, Sehnsucht
 


 
Последние комментарии

"Спасибо! отличная песня."
 

"Интересно кто так бездарно подбирает?! В оригинале слабо что ли?"
 

"Простая и в тоже время прекрасная,душевная песня.Спасибо!"
 

"Дзякуй"
 

"Показать окорды"
Статистика

Онлайн всего: 63
Гостей: 63
Пользователей: 0
Вход на сайт