Accordium Delectus Подборка аккордов
 
Главная > Р > РА > Где бы ты ни была

РА: Где бы ты ни была



Вступление:

   C                         Gsus2                          

E|-------0-------------0-------------3-------------3------|

H|-----1----1--------1----2--------3----3--------3----3---|

G|---0--------0----0--------0----0--------0----0--------0-|

D|--------------------------------------------------------|

A|-3-------------3----------------------------------------|

E|-----------------------------3-------------3------------|

 

  Am                           F                            

E|-------0-------------0-------------1-------------1------|

H|-----1----1--------1----1--------1----1--------1----1---|

G|---2--------2----2--------2----2--------2----2--------2-|

D|--------------------------------------------------------|

A|-0-------------0----------------------------------------|

         E|-----------------------------1-------------1------------| - 2 раза


  C                     
Где бы ты ни была,
Gsus2                
Я тебя найду
 Am                         
Знаю, что ждёшь меня,
F            
Я уже иду

Сквозь пустоту миров
Имя твоё кричу
Встретить тебя готов,
Я уже иду!

Припев:

 C          Gsus2  Am
Видишь, я на краю
F                        
Образ твой творю!
 C           Gsus2    Am
Ты услышь песнь мою
F                        
И скажи: "Люблю!"

Голос твой в тишине
В небесах взлетит
И для нас, для двоих,
Встречу сотворит!


Я не предам мечту,
Нежные слова
В сердце своем храню
Только для тебя!

И на пути к тебе
Сам себя найду
Верю в мечту свою,
Я уже лечу!

Припев - 2 раза.

  C                       
Где бы ты ни была...

Примерный вариант боя:

 
Последние комментарии

"Исковерканы текст и мелодия. Переделана под блатную. Из мажора - в минор?"
 

"Супер песня!Я обожаю!"
 

"Шикарная песня, шикарное исполнение"
 

"выше сяких похвал. почему не издана, только на виниле, который запретили."
 

"круто"
Вход на сайт