Accordium Delectus Подборка аккордов Главная Отзывы Заявка на песню Аккорды Табы Новости Видео Статьи FAQ О сайте
А   Б   В   Г   Д   Е   Ё   Ж   З   И   Й   К   Л   М   Н   О   П   Р   С   Т   У   Ф   Х   Ц   Ч   Ш   Щ   Э   Ю   Я
 
A   B   C   D   E   F   G   H   I   J   K   L   M   N   O   P   Q   R   S   T   U   V   W   Y   Z                       0...9
"
Разделы сайта
                   
Настройка гитары
1-я струна E  

2-я струна H  

3-я струна G  

4-я струна D  

5-я струна A  

6-я струна E  
Главная > M > Marx Richard > Now And Forever

Richard Marx: Now And Forever


Вступление - 2 раза :


E|------3------------------------3-----------|

H|-------------0--1--3--1------1--------1-0--|

G|----0---0----0--0--0--0----0--------0------|

D|-------------0--2--4--2--------------------|

A|-------------------------------------------|

         E|-3-----------------------------------------|         



Gsus2   D/F#        Em        
Whenever I'm weary
              Am7         Gsus2          D/F# 
From the battles that rage in my head
Gsus2     D/F#              Em             
You make sense of madness
               Am7  Gsus2            D/F# 
When my sanity hangs by a thread

C               H7                    
I lose my way but still you
   Em    Em/D  Em/C# 
Seem to understand
                   Am7     D 
Now and forever
                   Gsus2 
I will be your man

Проигрыш:


E|------3------------------------3-----------|

H|-------------0--1--3--1------1--------1-0--|

G|----0---0----0--0--0--0----0--------0------|

D|-------------0--2--4--2--------------------|

A|-------------------------------------------|

E|-3-----------------------------------------|


Sometimes I just hold you
Too caught up in me to see
I'm holding a fortune
That heaven has given to me

I'll try to show you each and
Every way I can
Now and forever
I will be your man

Проигрыш


E|------3------------------------3-----------|

H|-------------0--1--3--1------1--------1-0--|

G|----0---0----0--0--0--0----0--------0------|

D|-------------0--2--4--2--------------------|

A|-------------------------------------------|

E|-3-----------------------------------------|



Припев:

 H7          Em         C      
Now I can rest my worries
      G              D   
And always be sure
            Em          C   G     D/F# 
That I won't be alone anymore

Em      C       
If I'd only
   G                     D             C   
Known you were there all the time
        Cm+7 Cm7 Gsus2 
All this ti-a-a-a-a-ime

Проигрыш: Gsus2  D/F#  Em  Am7  Gsus2  D/F# - 2 раза

             C              H7                               
Until the day the ocean
  Em     Em/D      Em/C# 
Doesn't touch the sand
                 Am7  D                 Gsus2  
Now and forever I will be your man

Проигрыш:

                                   Am7  D                   C    Cm7  Gsus2    
Now and forever I will be your man

Окончание:


E|-------3--|

H|-1--3--0--|

G|-0--0--0--|

D|-2--4-----|

A|----------|

E|----------|

Gsus2                                                        D/F#

   

  Em/D                                                        Em/C# 

     

Cm+7                                                         Cm7

   


 
 
Новые добавления
Статистика

Онлайн всего: 25
Гостей: 25
Пользователей: 0

Яндекс.Метрика

Вход на сайт