Accordium Delectus Подборка аккордов
 
Главная > К > Каримов Ринат > Каким меня ты ядом напоила

Ринат Каримов: Каким меня ты ядом напоила




Вступление:

                                    Em            E7                       Am     

E|-------------------------------------------------------------------------------|

H|----7--8--7--------------------------------7--8--7-----------------------------|

G|-9-----------9~11~9--7~9~7--5~7~5-------9-----------9~11~9--7~9~7--5~7~5-------|

D|-----------------------------------9--------------------------------------9--7-|

A|-------------------------------------------------------------------------------|

E|-------------------------------------------------------------------------------|

Am                              Em                                           H7 

E|----8--10--8~10~8--7~8~7----------------7--8--7~8~7--5~7~5---3~5~3--2~3~2------|

H|--------------------------10--8-7------------------------------------------5-7-|

G|-9-----------------------------------9-----------------------------------------|

D|-------------------------------------------------------------------------------|

A|-------------------------------------------------------------------------------|

E|-------------------------------------------------------------------------------|

             Em              E7

E|----5--7--5~7~5--3~5~3--2~3~2------------------------7~8~7--5-4----------------|

H|-------------------------------5--4--7~8~7--5-5----5-------------6-5-----------|

G|-9-------------------------------------------------------------------7-9-------|

D|-------------------------------------------------------------------------------|

A|-------------------------------------------------------------------------------|

E|-------------------------------------------------------------------------------|

   Am                                  Em                                           H7        

E|----8--10--8~10~8--7~8~7----------------7--8--7~8~7--5~7~5---3~5~3--2~3~2------|

H|--------------------------10--8-7------------------------------------------5-7-|

G|-9-----------------------------------9-----------------------------------------|

D|-------------------------------------------------------------------------------|

A|-------------------------------------------------------------------------------|

E|-------------------------------------------------------------------------------|

H7                                   Em  флажолет   

E|----5--7--5~7~5--3~5~3--2~3~2------------12фл13--|

H|-------------------------------5--4-5----12фл13--|

G|-9---------------------------------------12фл13--|

D|-------------------------------------------------|

A|-------------------------------------------------|

E|-------------------------------------------------|

Флажолет - очень лёгкое прикосновение пальцем левой руки к струнам над порожком между 12-м и 13-м ладами


Em                              
Каким меня ты ядом напоила,
   Em               E7             Am   
Каким огнём меня воспламенила?

Am                         
Дай мне руки нежные
Em                                   
И глаза безбрежные,
H7                               Em    E7       
Молодые, трепетные губы, ой!

Дай мне руки нежные
И глаза безбрежные,
H7                               Em         
Молодые, трепетные губы


Все друзья смеются надо мною,
Разлучить хотят меня с тобою!

Но ты будь уверена
В искренней любви моей,
Ты моя, и я тобой погублен, ой!

Но ты будь уверена
В искренней любви моей,
Ты моя, и я тобой погублен


Что я буду делать без тебя?
Пропадает молодость моя...

Возле дома твоего
Из-за счастья своего
Плачу и рыдаю, дорогая, ой!

Возле дома твоего
Из-за счастья своего
Плачу и рыдаю, дорогая

Проигрыш=Вступление

Каким меня ты ядом напоила?
Каким огнём меня воспламенила?

Дай мне руки нежные
И глаза безбрежные,
Молодые трепетные губы, ой!

Дай мне руки нежные
И глаза безбрежные,
Молодые трепетные губы

Окончание=Вступление

Последняя часть вступления:

H7                                Em     H7  Em  

E|----5--7--5~7~5--3~5~3--2~3~2-----------------|

H|-------------------------------4-5--5--4-4--5-|

G|-9--------------------------------------------|

D|----------------------------------------------|

A|----------------------------------------------|

E|----------------------------------------------|


Бой на гитаре (примерный вариант):

 
Последние комментарии

"Спасибо! отличная песня."
 

"Интересно кто так бездарно подбирает?! В оригинале слабо что ли?"
 

"Простая и в тоже время прекрасная,душевная песня.Спасибо!"
 

"Дзякуй"
 

"Показать окорды"
Статистика

Онлайн всего: 75
Гостей: 75
Пользователей: 0
Вход на сайт