Accordium Delectus Подборка аккордов
 

Rod Stewart: Sailing


Вступление (примерный вариант):


E|---------------------------------------------7--------7--------7--------7---|

H|---9-10------9-10------9-10------9-10---------------------------------------|

G|-9-------9-9-------9-9-------9-9-------9---8---8----8---8----8---8----8---8-|

D|-----------------------------------------9--------9-----------------9-------|

A|-----------------------------------------------------------9----------------|

E|----------------------------------------------------------------------------|

 

E|---------------------------------------------7--------7-----------------|

H|---9-10------9-10------9-10------9-10--------------------------7----7-9-|

G|-9-------9-9-------9-9-------9-9-------9---8---8----8---8---------------|

D|-----------------------------------------9--------9----------8---8--4-6-|

A|-----------------------------------------------------------9------------|

E|------------------------------------------------------------------------|

                                                                        (I am sailing...)


      H            G#m      
I am sailing, I am sailing,
       E               H 
Home again 'cross the sea
     C#             G#m    
I am sailing, stormy waters,
          C#m               H  F# 
To be near you, to be free


I am flying, I am flying,
Like a bird 'cross the sky
I am flying, passing high clouds,
To be with you, to be free

Can you hear me, can you hear me
Thro' the dark night, far away,
I am dying, forever trying,
To be with you, who can say

Can you hear me, can you hear me,
Thro' the dark night far away
I am dying, forever trying,
To be with you, who can say

Проигрыш:

E  G#m  F#  G#m    E  H  F#  F#7-F#7

We are sailing, we are sailing,
Home again 'cross the sea
We are sailing stormy waters,
To be near you, to be free

F#             C#m               H  
Oh Lord, to be near you, to be free,
Oh Lord, to be near you, to be free,
Oh Lord, to be near you, to be free,
Oh Lord, to be near you, to be free,

F#        
Oh Lord...

Окончание:

E|---------------------------------------------7--------7-----------------|

H|---9-10------9-10------9-10------9-10--------------------------7----7-9-|

G|-9-------9-9-------9-9-------9-9-------9---8---8----8---8---------------|

D|-----------------------------------------9--------9----------8---8--4-6-|

A|-----------------------------------------------------------9------------|

E|------------------------------------------------------------------------|



H  G#m  E  H  C#  G#m  C#m  H  F#...

Примерный вариант боя:


 


 
Последние комментарии

"Спасибо! Побольше бы таких мудрых, трогательных и красивых песен!"
 

"прекрасная песня и просто Прекрасный подбор, Спасибо!"
 

"Очень красивая песня.!!!"
 

"Супер!!! Спасибо за песню и смысл!!!!"
 

"Благодарю!!!"
Статистика

Онлайн всего: 45
Гостей: 45
Пользователей: 0
Вход на сайт