Accordium Delectus Подборка аккордов
 
"
Главная > Г > Газманов Родион > Феникс из пепла

Родион Газманов: Феникс из пепла



В оригинале на пол-тона выше (Cm)


            D          Em7    A7     D      
Девять жизней отпу-у-щено кошке,
        G            Em7  A7    D   
И всего лишь одна - человеку
  H7sus4   H7/D#    Em          Gm7 
Я хочу у тебя на ладошке сгореть
          D                Em7   A7         D    
И воскреснуть, как Фе-е-никс из пепла

Мне не нужен ни паспорт, ни виза,
Я снижаюсь по милости ветра
По пути огибая карнизы, 
Воскресаю, как Феникс из пепла

Проигрыш:

D  Em7 A7   D  A

Богу - Богово, вольному - воля...
Только вера в свободу поблекла
Если б знала ты, как это больно -
Возрождаться, как Феникс из пепла

И опять я в закат улетаю...
Видно, Вечность - не мой собеседник
Сколько раз уходил навсегда я,
               D         Em7    A7       D        Gm D
Только этот, похо-о-же, последний...

Как можно сыграть

   D       Em7  A7     D                   G       Em7  A7     D                   

E|-------------3----0----------------------------------7----5--------------------|

H|-----3------3----2-------3--------3----------3------8----5-------3--------3----|

G|---2---2---4----0------2---2----2---2------4---4---7----6------2---2----2----2-|

D|-0--------2----------0--------0----------5-------------5-----0--------0--------|

A|---------------0----------------------------------7----------------------------|

E|-------------------------------------------------------------------------------|

 

H7sus4     H7       Em       Gm7      D       Em7  A7     D                 

E|-------------------------0-----3----------------3----0----------2---------|

H|-----0--------0--------0------3---------3------3----2-------3-------------|

G|---2---2----2---2----0-------3--------2---2---4----0------2---2-----------|

D|-2--------1--------2--------3-------0--------2----------0-----------------|

A|--------------------------------------------------0-----------------------|

E|--------------------------------------------------------------------------|

Проигрыш:

   D       Em7  A7     D        A      

E|-------------3----0---------------0-|

H|-----3------3----2-------3-------2--|

G|---2---2---4----0------2---2----2---|

D|-0--------2----------0---------2----|

A|---------------0--------------0-----|

E|------------------------------------|

Окончание:

   D       Gm        D      

E|----------------3-----2-|

H|-----3--------3------3--|

G|---2---2----3-------2---|

D|-0--------5--------0----|

A|------------------------|

E|------------------------|

 
Поделись с друзьями:
 
 
Последние комментарии

"Слова не те"
 

"уаропоряяяяяяяяяяя"
 

"хорошо"
 
Стефания Детковская «Слава: Расскажи мне, мама

"Красивая песня"
 

"Песня моей юности! В конце 60-х она звучала из всех открытых окон и из транзисторов в руках у ребят!"
Настройка гитары
1-ая струна E (ми)  

2-ая струна H (си)  

3-я струна G (соль) 

4-ая струна D (ре) 

5-ая струна A (ля) 

6-ая струна E (ми) 
Статистика

Онлайн всего: 84
Гостей: 84
Пользователей: 0
Вход на сайт