Accordium Delectus Подборка аккордов
 
Главная > Р > Рок-Острова > В углу дивана

Рок-Острова: В углу дивана

(на стихи Александра Блока)
 


Вступление (примерный вариант перебора):

    D               G               A     F#/B     Hm                
E|:---------2---------------3-------------------------------2-------|
H|:-----3-------3-------0-------0-------2-------2-------3-------3---|
G|:---2---2---2---2---0---0---0---0---2---2---3---3---4---4---4---4-|
D|:-0---------------------------------------------------------------|
A|:---------------------------------0-------1-------2---------------|
E|:-----------------3-----------------------------------------------|

  Em               D               F#             Hm       A         
E|---------0---------------2---------------2-----------------------:|
H|-----0-------0-------3-------3-------2-------2-------3-------2---:|
G|---0---0---0---0---2---2---2---2---3---3---3---3---4---4---2---2-:|
D|-2---------------0-----------------------------------------------:|
A|-------------------------------------------------2-------0-------:|
         E|---------------------------------2-------------------------------:| - 2 раза

D                       G              A F#/B   Hm    
Но в камине дозвенели       угольки,
Em                      D           F#       Hm A    
За окошком догорели    огоньки,
D                          G              A F#/B  Hm      
И на вьюжном море тонут     корабли,
Em                       D                 F#         Hm A 
И над южным морем стонут     журавли

Верь мне, в этом мире солнца больше нет,
Верь лишь мне, ночное сердце, я - поэт!
Я какие хочешь сказки расскажу
И какие хочешь маски приведу

Проигрыш=Вступление

И пройдут любые тени при огне,
Странных очерки видений на стене
И любой колени склонит пред тобой,
И любой цветок уронит голубой

Проигрыш=Вступление

И любой колени склонит пред тобой,
И любой цветок уронит голубой

Окончание:

    D               G               A     F#/B     Hm                
E|:---------2---------------3-------------------------------2-------|
H|:-----3-------3-------0-------0-------2-------2-------3-------3---|
G|:---2---2---2---2---0---0---0---0---2---2---3---3---4---4---4---4-|
D|:-0---------------------------------------------------------------|
A|:---------------------------------0-------1-------2---------------|
E|:-----------------3-----------------------------------------------|

  Em               D               F#             Hm       A                      D   
E|---------0---------------2---------------2-----------------------:|          E|-2-|
H|-----0-------0-------3-------3-------2-------2-------3-------2---:|          H|-3-|
G|---0---0---0---0---2---2---2---2---3---3---3---3---4---4---2---2-:|          G|-2-|
D|-2---------------0-----------------------------------------------:|          D|-0-|
A|-------------------------------------------------2-------0-------:|          A|---|
E|---------------------------------2-------------------------------:| - 2 раза E|---|
 
Последние комментарии

"Супер песня "Матушка" . В ля миноре подошла мне"
 

"Исковерканы текст и мелодия. Переделана под блатную. Из мажора - в минор?"
 

"Супер песня!Я обожаю!"
 

"Шикарная песня, шикарное исполнение"
 

"выше сяких похвал. почему не издана, только на виниле, который запретили."
Вход на сайт