Accordium Delectus Подборка аккордов
 
"
Главная > С > Силин Руслан > Богородица

Руслан Силин: Богородица



Вступление (примерный вариант перебора):

  Em7              D                Am             Cadd9              
E|-----------0-----------2~3~2-------------0-------------------0-----|
H|-------3-----3-------3-------3-----------1---------------3-----3---|
G|-----0---------0---2-----------2-------2---2-----------0---0-----0-|
D|---2-----2-------0---------------0---2-------2-------2-------------|
A|-----------------------------------0-----------0-2-3---------------|
         E|-0-----------------------------------------------------------------| - 2 раза

   Em7                     D            Am  Cadd9
Впереди нехоженые дни
                           Em7       D                 Am    Cadd9
В предрассветный час, в долгий путь
 Em7                      D            Am  Cadd9
В небе путеводные огни,
                        Em7     D              Am  Cadd9
Чтоб с тропы святой не свернуть

Обещают крики воронья
Беды и метель по щекам
Верю, не забудет про меня
               Em7     D          Cadd9  Am 
Богородица, Божий храм

Припев:

       Em      D        G           Am           Cadd9      D      Cadd9  Am
Матушка покров миру выстелет от доброты  неземной,
        Em  D          G       Am          Cadd9          D   Cadd9  Am
Дарует вместившая истину надежды свет золотой,
      Em7
Золотой

Проигрыш=Вступление

Что-то разгулялись ветры всласть...
Куст рябиновый у окна
Помолится на землю упасть,
Всё торопится дотемна

И чтобы не случилось по утру,
Не сверну с пути к небесам,
Буду я молить тебя одну,
Богородицу, Божий храм

Припев.

Проигрыш=Вступление

Впереди нехоженые дни
В предрассветный час, в долгий путь
В небе путеводные огни,
Чтоб с тропы святой не свернуть,
      Em7
Не свернуть...

Окончание:

  Em7              D                Am             Cadd9             Em  
E|-----------0-----------2~3~2-------------0-------------------0------0-|
H|-------3-----3-------3-------3-----------1---------------3-----3----0-|
G|-----0---------0---2-----------2-------2---2-----------0---0-----0--0-|
D|---2-----2-------0---------------0---2-------2-------2--------------2-|
A|-----------------------------------0-----------0-2-3----------------2-|
E|-0------------------------------------------------------------------0-|
 
Поделись с друзьями:
 
 
Последние комментарии
Игорь Бурдин «Ассоциация: Я - деревня

"Ностальджи. е-е"
 

"отлично!"
 

"Супер!"
 

"Пробрало до соплей!!!!"
 

"Хорошо! Как в лаванду окунулся!"
Настройка гитары
1-ая струна E (ми)  

2-ая струна H (си)  

3-я струна G (соль) 

4-ая струна D (ре) 

5-ая струна A (ля) 

6-ая струна E (ми) 
Статистика

Онлайн всего: 89
Гостей: 88
Пользователей: 1
Justas
Вход на сайт