Accordium Delectus Подборка аккордов
 

Саша Курневская: Саночки

(слова и музыка Игоря Кормановского)
 



Вступление (примерный вариант перебора):

  Am                            D#dim7                              

E|---------0-----0---------0-----0---------2-----2---------2-----2-|

H|-----1-----1---------1-----1---------1-----1---------1-----1-----|

G|---2---2-----2-----2---2-----2-----2---2-----2-----2---2-----2---|

D|-----------------2---------------1---------------1---------------|

A|-0---------------------------------------------------------------|

E|-----------------------------------------------------------------|

 Fdim7                            E7                                

E|---------4-----4---------4-----4---------0-----0---------0-----0-|

H|-----3-----3---------3-----3---------3-----3---------3-----3-----|

G|---4---4-----4-----4---4-----4-----1---1-----1-----1---1-----1---|

D|-3---------------3-----------------------------------------------|

A|-----------------------------------------------------------------|

E|---------------------------------0---------------0---------------|

  Am                                                          

E|---------0-----0---------0-----0----------------------------|

H|-----1-----1---------1-----1--------------------------------|

G|---2---2-----2-----2---2-----2------------------------------|

D|-----------------2------------------------------------------|

A|-0----------------------------------------------------------|

E|------------------------------------------------------------|


   Am     Dm7   E7   Am 
Скрип, скрип, саночки,
Gm               A7          
Ледяные кочки
Dm7                E7      F   
Ох, да по Фонтаночке
Dm7              E7    
Мать везёт сыночка
 
Скрип, скрип, саночки...
"Спи, сыночек милый!
Ждёт тебя, мой Санечка,
Братская могила...

Gm                     A7       Dm7     
Как судьба твоя страшна!
 H7               E7        
Рос бы мне отрадой...
 F             G     Cmaj7           F  
Эх, кабы, милый,       не война,
Dm7            E7     Gm      A7         
Кабы, милый, не война,
Dm7            E7   Am         F          
Кабы, милый, не война,
Dm7            E7   Am            
Не блока-а-да..."
 
 
Скрип, скрип, саночки,
Мать везёт сыночка...
"А было тебе, Санечка,
Только пять годочков..."
 
Скрип, скрип, саночки,
Старые салазки...
"Подрастал бы, Санечка,
Ты в любви и ласке
 
Всё отдать тебе сполна
Я была бы рада!
Эх, кабы, милый, не война,
Кабы, милый, не война,
Кабы, милый, не война,
Не блокада..."
 
 
Скрип, скрип, саночки,
Белые сугробы...
"Ты прости уж, Санечка,
Что ни венка, ни гроба..."
 
Скрип, скрип, саночки,
Снежные иголки...
"Помнишь, милый Санечка,
Леденцы на ёлке?
 
Помнишь, как была вкусна
Плитка шоколада?
Будь же проклята война!
Будь же проклята война!
Будь же проклята война
И блокада!"

 
Скрип, скрип, саночки,
Тук-тук-тук, сердечко...
"Как же это, Санечка?
Ты ж сгорел, как свечка..."
 
Скрип, скрип, саночки...
"Ведь хлеб свой отдавала
Весь тебе я, Санечка,
Да, выходит, мало..."
 
Скрип, скрип, саночки...
"Ой, что-то грудь сдавило!
Ох, присяду, Санечка,
Dm7                     E7      Am     
Нету больше силы..."
 


 
Последние комментарии

"Чушнёй попахивает"
 

"СПАСИБО!!!"
 

"Красивая и правдивая песня! На все времена! Всех вспомнили,никого не забыли! Спасибо!"
 

"давно искал! спасибо!"
 

"Отличный подбор! Это тебе не на амдм хлам. Спасибо!"
Статистика

Онлайн всего: 110
Гостей: 109
Пользователей: 1
Justas
Вход на сайт