Accordium Delectus Подборка аккордов
 
Главная > С > Саша Виста > Романс

Саша Виста: Романс



Вступление:

D7sus4      D7      F6    Em(2)  Asus2/C  Cdim7   Em(фл)                   
E|--------5-------5-------5-------3---------2-------------------фл12------|
H|------3-------3-------3-------0---------0-----1----------фл12------фл12-|
G|---5--------5-------5-------0---------2-----2---2---фл12----------------|
D|-5--------4-------3-------2---------2-----1-----------------------------|
A|----------------------------------3-------------------------------------|
E|--------------------------------------------------0---------------------|

Em              Em7       Am7 Hm7            
Здесь, в этих высоких окнах
Em          Em7          Am7     C       Hm7 
Спит маленький лучик солнца
D7sus4            D7              F6       Em(2)             
Мне в самых нескромных грёзах
Asus2/C            Cdim7
Его не будить - нет

Весна заметёт бульвары
Обрывками строк газетных
Я буду стоять и думать:
        Am7         Hm7 D7sus4
Ты знаешь - тебе привет

Проигрыш=Вступление

Ты помнишь, как ранним утром
Тогда изменилось время
Я слышал, его как-будто
Нельзя повернуть - нет

Вот осень метёт бульвары
Листвою не пожелтевшей
Я буду стоять и думать:
Ты знаешь - тебе привет

Проигрыш:

D7sus4      D7    Em(2)   Gmaj7     C      Hm7    Esus4              
E|--------5-------5-------3-2-----2-0-----0-----------------0-------|
H|------3-------3-------0-------0-------1---3-----3-------0-----0---|
G|---5--------5-------0-------0-------0---------2-------2-----2---2-|
D|-5--------4-------2-------0-----------------4-------2-------------|
A|----------------------------------3-------2-----------------------|
E|--------------------------------------------------0---------------|

Amadd9   Am7add9 Dm7     Em7                
Но все неудачи в жизни
Amadd9   Am7add9  Dm7    F       G          
Не стоят твоей улыбки
C            G6      Gm6  Am7        
Должно повезти кому-то
    Dm7                      H7/D#
Увидеть с тобой рассвет

Em     Em7    Am7       Hm7        
Зима заметёт бульвары
Em      Em7         Am7     C       Hm7
Мукой подвенечно-белой
D7sus4      D7        F6 Em(2)                 
Я буду идти и думать:
Asus2/C
Ты знаешь...

D7sus4      D7        F6 Em(2)                
Я буду идти и думать:
         Am7         Hm7 Em(фл)
Ты знаешь - тебе привет

Em(фл)             
E|-------------фл12-|
H|--------фл12------|
G|---фл12-----------|
D|------------------|
A|------------------|
E|-0----------------|
...привет                    
 
Последние комментарии

"Мне всегда слышалось " зато в руках заветный диск". И непонимание того, про кого все же песня: про расклейщиков афиш или коллекционеров разной атрибутики поп-идолов?"
 

"СУПЕР!"
 

"Спасибо!"
 

"На яндексмузыке, в сборниках Эдуарда Артемьева, эта песня длиннее - из 3-х куплетов. Добрая память замечательному композитору."
 

"Супер, вспомнил забытую вещь"
Вход на сайт