Accordium Delectus Подборка аккордов
 
Главная > S > Scorpions > 3,2,1

Scorpions: 3,2,1



Вступление (играется куплет):

solo
E|-------------------------------|
H|-------------------------------|
G|-------------------------------|
D|-----------3-----------3-------|
A|-3-5-6-3-6---3-5-6-3-6---3-5-6-|
         E|-------------------------------| - 4 раза

Time is a wicked master
Put your life into its hand
Close your eyes and it will crush you

Fate only spins you faster
It's a curse born unto man
Turns your dreams into disaster

Припев:

Cm                          D#                     
Save me 'cause the world's gonna stop
                   B                               F                 
And baby three, two, one, are you ready to rock?
                    Cm                       D#                   
Come on and wake me, the final curtain will drop
                   B                              Cm                
And baby three, two, one, are you ready to rock?
D#  
Are you ready to rock?
B   
Are you ready to rock?
              F                  solo    
Are you ready to rock tonight?

Проигрыш:

solo
E|-------------------------------|
H|-------------------------------|
G|-------------------------------|
D|-----------3-----------3-------|
A|-3-5-6-3-6---3-5-6-3-6---3-5-6-|
         E|-------------------------------| - 2 раза

Lies, it's the truth I'm after
Let me find it in your eyes
Quick before the moment dies

Cries in a sea of laughter
Weeping gently in my soul
Love's the only thing that matters

Припев:

Save me 'cause the world's gonna stop
And baby three, two, one, are you ready to rock?
Come on and wake me, the final curtain will drop
And baby three, two, one, are you ready to rock?
Are you ready to rock?
Are you ready to rock?
F  
Are you ready to rock?

Cm   
Are you ready to rock?
D#  
Are you ready to rock?
B   
Are you ready to rock?
              F                    G#    
Are you ready to rock tonight?

Проигрыш:

|G#  G|D#5>F5|

solo
E|-------------------------------|
H|-------------------------------|
G|-------------------------------|
D|-----------3-----------3-------|
A|-3-5-6-3-6---3-5-6-3-6---3-5-6-|
E|-------------------------------|

|G#  G|D#5>F5|

solo
E|-------------------------------|
H|-------------------------------|
G|-------------------------------|
D|-----------3-----------3-------|
A|-3-5-6-3-6---3-5-6-3-6---3-5-6-|
         E|-------------------------------| - 4 раза

|Cm|

Припев:

Come on and save me 'cause the world's gonna stop
And baby three, two, one, are you ready to rock?
Come on and wake me, the final curtain will drop
And baby three, two, one, are you ready to rock?

Come on and shake me 'cause we're in for a shock
And baby three, two, one, we're fallin' down from the top
Come on and take me, we're goin straight to the top
And baby three, two, one, are you ready to rock?
Are you ready to rock?
Are you ready to rock?
Are you ready to rock?
Are you ready to rock?
Are you ready to rock?
Are you ready to rock?
              F                  solo    
Are you ready to rock tonight?

Окончание:

solo
E|-------------------------------|
H|-------------------------------|
G|-------------------------------|
D|-----------3-----------3-------|
A|-3-5-6-3-6---3-5-6-3-6---3-5-6-|
E|-------------------------------|
 


 
Последние комментарии

"Реклама одолела"
 

"сильная песня"
 

"👍"
 

"Сила"
 

"Браво!"
Вход на сайт