Accordium Delectus Подборка аккордов Главная Отзывы Заявка на песню Аккорды Табы Новости Видео Статьи FAQ О сайте
А   Б   В   Г   Д   Е   Ё   Ж   З   И   Й   К   Л   М   Н   О   П   Р   С   Т   У   Ф   Х   Ц   Ч   Ш   Щ   Э   Ю   Я
 
A   B   C   D   E   F   G   H   I   J   K   L   M   N   O   P   Q   R   S   T   U   V   W   Y   Z                       0...9
"
Разделы сайта
                   
Настройка гитары
1-я струна E  

2-я струна H  

3-я струна G  

4-я струна D  

5-я струна A  

6-я струна E  
Главная > S > Scorpions > Always Somewhere

Scorpions: Always Somewhere



Вступление (примерный вариант перебора):

       C               G            Dmadd9    Em7     Am           

E|-----------------------3-----3-----0---0-------0--------0-----0-|

H|-------1-----1-----0-----0-----0---------3-------3--------1-----|

G|---------0-----0-----------0-----0---------2-------0--------2---|

D|-----------2-----2-------------------3-------2------------------|

A|-0-2-3-----------------------------------------------0----------|

         E|---------------------3------------------------------------------| - 2 раза

 

       C               G            Dmadd9    Em7    Asus2          

E|-----------------------3-----3-----0---0-------0--------------0-|

H|-------1-----1-----0-----0-----0---------3-------3------0-1-----|

G|---------0-----0-----------0-----0---------2-------0--------2---|

D|-----------2-----2-------------------3-------2------------------|

A|-0-2-3-----------------------------------------------0----------|

E|---------------------3------------------------------------------|

 

       C               G            Dmadd9    Em7     Am            

E|-----------------------3-----3-----0---0-------0--------0-----0-|

H|-------1-----1-----0-----0-----0---------3-------3--------1-----|

G|---------0-----0-----------0-----0---------2-------0--------2---|

D|-----------2-----2-------------------3-------2------------------|

A|-0-2-3-----------------------------------------------0----------|

         E|---------------------3------------------------------------------| - 2 раза

 

       C               G              Am                            

E|-----------------------3-----3-----0----0-----0-----0-----0-----|

H|-------1-----1-----0-----0-----0----------1-----1-----1-----1---|

G|---------0-----0-----------0-----0----------2-----2-----2-----2-|

D|-----------2-----2----------------------------------------------|

A|-0-2-3-------------------------------0--------------------------|

E|---------------------3------------------------------------------|


C                G         Dmadd9 Em7  Am    
Arrive at seven the place   feels good
C                  G           Am    
No time to call you today
C                    G          Dmadd9 Em7   Am     
Encores till eleven then Chi-----nese food
C                    G      Am     
Back to the hotel again

Проигрыш:

       C               G            Dmadd9    Em7     Am            

E|-----------------------3-----3-----0---0-------0--------0-----0-|

H|-------1-----1-----0-----0-----0---------3-------3--------1-----|

G|---------0-----0-----------0-----0---------2-------0--------2---|

D|-----------2-----2-------------------3-------2------------------|

A|-0-2-3-----------------------------------------------0----------|

E|---------------------3------------------------------------------|

 

       C               G              Am                            

E|-----------------------3-----3-----0----0-----0-----0-----0-----|

H|-------1-----1-----0-----0-----0----------1-----1-----1-----1---|

G|---------0-----0-----------0-----0----------2-----2-----2-----2-|

D|-----------2-----2----------------------------------------------|

A|-0-2-3-------------------------------0--------------------------|

E|---------------------3------------------------------------------|


I call your number the line ain't free,
I like to tell you come to me
A night without you seems like a lost dream
Love I can't tell you how I feel

Припев:

C5             G5                 
Always somewhere
A5                                           
Miss you where I've been
F5            G5                      C5   G5 
I''ll be back to love you again

Always somewhere
Miss you where I've been
I'll be back to love you again

Проигрыш:

       C               G            Dmadd9    Em7     Am            

E|-----------------------3-----3-----0---0-------0--------0-----0-|

H|-------1-----1-----0-----0-----0---------3-------3--------1-----|

G|---------0-----0-----------0-----0---------2-------0--------2---|

D|-----------2-----2-------------------3-------2------------------|

A|-0-2-3-----------------------------------------------0----------|

         E|---------------------3------------------------------------------| - 3 раза

 

       C               G            Dmadd9    Em7    Asus2          

E|-----------------------3-----3-----0---0-------0--------------0-|

H|-------1-----1-----0-----0-----0---------3-------3------0-1-----|

G|---------0-----0-----------0-----0---------2-------0--------2---|

D|-----------2-----2-------------------3-------2------------------|

A|-0-2-3-----------------------------------------------0----------|

E|---------------------3------------------------------------------|


Another morning, another days
The only day off is far away
But every city seen me in the end
And brings me to you again

Припев.

Окончание:

       C               G            Dmadd9    Em7     Am           

E|-----------------------3-----3-----0---0-------0--------0-----0-|

H|-------1-----1-----0-----0-----0---------3-------3--------1-----|

G|---------0-----0-----------0-----0---------2-------0--------2---|

D|-----------2-----2-------------------3-------2------------------|

A|-0-2-3-----------------------------------------------0----------|

E|---------------------3------------------------------------------|

 

       C               G            Dmadd9    Em7        Am        

E|-----------------------3-----3-----0---0-------0--------0-------|

H|-------1-----1-----0-----0-----0---------3-------3------1-------|

G|---------0-----0-----------0-----0---------2-------0----2-------|

D|-----------2-----2-------------------3-------2----------2-------|

A|-0-2-3--------------------------------------------------0-------|

E|---------------------3------------------------------------------|

 
 
Новые добавления
Статистика

Онлайн всего: 74
Гостей: 73
Пользователей: 1
Justas

Яндекс.Метрика

Вход на сайт