Accordium Delectus Подборка аккордов
 
Главная > С > Секрет > Алиса

Бит-квартет Секрет: Алиса



Смотреть в тональности Em

        F#m      E     Hm/D  C#7
Алиса умеет вязать,
 F#m       E          Hm/D C#7 
Алиса рисует в альбо-о-мах,
       F#m           E         Hm/D  C#7
Алису в гостях не застать,
   F#m        E         Hm/D C#7
Алиса почти всегда до-о-ма

Припев:

F#             Hm                                
Ах, Алиса, как бы нам встретиться,
  E             A           C#7 
Как поболтать обо всём!
F#              Hm                        
Ах, Алиса, просто не терпится,
E                         A        D7         G        C#7     
   Ах, побыть в доме твоём с тобою вдвоём...


Алиса не любит гостей,
Алиса одна вечерами,
Алиса сидит на тахте
С коробкой конфет и с мечтами

Припев.

А-А-А-Алиса и дня
Не может прожить без ирисок
Алиса - совсем как дитя,
Но лучше всех А-А-Алиса!

Припев:

Ах, Алиса, как бы нам встретиться,
Как поболтать обо всём!
Ах, Алиса, просто не терпится,
E                        A        D7         G         C#7        F#        
Ах, побыть в доме твоём с тобою, с тобою вдвоём...

Окончание:

    F#          Hm              E        A      C#7
E|-----------------------------------------------|
H|-----------------------------------------------|
G|-6-------------------6--4------------------4---|
D|----8--6--4-------4-------7--6----4---7--7---6-|
A|-------------5--7-------------------7----------|
E|-----------------------------------------------|
    F#          Hm              E        A      D7 
E|-----------------------------------------------|
H|-----------------------------------------------|
G|-6-------------------6--4-------------4--------|
D|----8--6--4-------4-------7--6----4------7-6-4-|
A|-------------5--7-------------------7----------|
E|-----------------------------------------------|
        G     C#7         F# 
E|-----------------------|
H|-----------------------|
G|--------4--------------|
D|-4-5--7---4--3--6--6>8-|
A|-----------------------|
E|-----------------------|

Бой на гитаре (примерный вариант):

 
Поделись с друзьями:
 
 
Последние комментарии

"Эту песню любит мой папа"
 

"Жалгас"
 

"Класс!!!Молодец.Обожаю эту песню"
 

"Классика."
 

"спасибо!)"
Статистика

Онлайн всего: 114
Гостей: 114
Пользователей: 0
Вход на сайт