Accordium Delectus Подборка аккордов
 
"
Главная > С > Секрет > Ничего не исчезает

Секрет: Ничего не исчезает




Вступление:

 D                    E7/D                      

E|---------------------------------------------|

H|---------------------------------------------|

G|-7-7-6-7--9--7--6--7----7-7-6-7--9--7--6--7--|

D|---------------------------------------------|

A|---------------------------------------------|

E|---------------------------------------------|

 

G/D                    A7sus4      A7          

E|---------------------------------------------|

H|------------------------7--------------------|

G|-7-7-6-7--9--7--6--7-------9-9--7-7--6-----6-|

D|----------------------------------------9----|

A|---------------------------------------------|

         E|---------------------------------------------| - 2 раза


Dm             Dm+7           Dm7                  G 
Не таскай с собою день вчерашний в рюкзаке:
    Gm                                   B                      A7sus4   A7
Были, мол, денёчки, был я весел и беспечен, и молод
Dm             Dm+7          Dm7             G
   Ты, конечно, слышал о беспечном ездоке...
 Gm                                                              A7sus4   
Знаешь, мне сказали: этот парень возвращается в город,
   A7       
В город...

Припев:

D                                
Ничего не исчезает,
E7                                     
Даже если жизнь кидает
 Em            Em7    A7
Нас на вираже-е-е-е

D                                         
Подними глаза в надежде,
E7                                                
Ведь твоя любовь, как прежде,
    D     Hm     G    A7    D
Ждёт тебя на пятом этаже

Проигрыш:

 D                     A7sus4      A7          

E|---------------------------------------------|

H|------------------------7--------------------|

G|-7-7-6-7--9--7--6--7-------9-9--7-7--6-----6-|

D|----------------------------------------9----|

A|---------------------------------------------|

E|---------------------------------------------|


Вновь заходят пароходы в бухту Тимбухту,
Их встречает в узких, красных галстуках туземное племя
Вновь Алиса помечтать присела на тахту,
Ей опять шестнадцать - вот что значит ленинградское время,
Время!

Припев:

Именины у Кристины:
Розы, книги, апельсины,
Шум и суета

Ничего не исчезает...
Загляни в себя - какая
Там любовь и красота!

Проигрыш=Вступление (1 раз).

Припев:

Ничего не исчезает,
Даже если жизнь кидает
Нас на вираже

Подними глаза в надежде,
Ведь твоя любовь, как прежде,
                D     Hm     G     A7   D Hm G A7 
Ждёт тебя на пятом этаже!
   D     Hm       Gm          D
   Моя любовь на пятом этаже...

Окончание: D  E7  D D7/C G/H Gm/B C D

Примерный вариант боя:

 
Поделись с друзьями:
 
 
Последние комментарии

"отлично!"
 

"Супер!"
 

"Пробрало до соплей!!!!"
 

"Хорошо! Как в лаванду окунулся!"
 

"Никто не прокомментировал! А мне нравится!!!!"
Настройка гитары
1-ая струна E (ми)  

2-ая струна H (си)  

3-я струна G (соль) 

4-ая струна D (ре) 

5-ая струна A (ля) 

6-ая струна E (ми) 
Статистика

Онлайн всего: 19
Гостей: 19
Пользователей: 0
Вход на сайт