Accordium Delectus Подборка аккордов
 

Сектор Газа: Сифон



Вступление:

   Em                                     C/D                                 

E|-------------------------------------------------|

H|-------------------------------------------------|

G|---------------0-------------------------0-------|

D|-2---0-2---0-2---2-0-2-----2---0-2---0-2---2-0-2-|

A|-------------------------------------------------|

E|-------------------------------------------------|

  D/E                       F/G                     

E|-------------------------------------------------|

H|-------------------------------------------------|

G|---------------0-------------------------0-------|

D|-2---0-2---0-2---2-0-2-----2---0-2---0-2---2-0-2-|

A|-------------------------------------------------|

         E|-------------------------------------------------| - 2 раза

  E5    G5 E5       G5 E5       G5 A5 B5 A5 B5 A5  

E|-------------------------------------------------|

H|-------------------------------------------------|

G|-------------------------------------------------|

D|-2--2--5--2--2--2--5--2--2--2--5--7--8--7--8--7--|

A|-2--2--5--2--2--2--5--2--2--2--5--7--8--7--8--7--|

         E|-0--0--3--0--0--0--3--0--0--0--3--5--6--5--6--5--| - 4 раза



         E5  G5 E5        G5 E5             G5  A5 B5   A5  B5 A5
Ты так хо-роша в сво-ём нижнем бе-е-елье-е-е-е-е,
               E5 G5  E5   G5  E5     G5    A5  B5 A5 B5 A5
Ты как богиня, ты нравишься мне
               E5  G5   E5      G5 E5           G5  A5   B5   A5  B5 A5
Бюстгальтер небрежно соскальзыва-а-ет вни-и-из,
                     E5       G5 E5            G5 E5      G5  A5 B5  A5 B5 A5
Я тянусь к тво-им грудям, но боюсь си-фи-лис

              D5                   A5 
Какой красивый у тебя лифон,
            G5                           E5 
Но так боюсь я подхватить сифон
              D5                    A5  
Какой красивый у тебя лифон,
            G5                          E5
Но так боюсь я подхватить сифон

Проигрыш:

  E5    G5 E5       G5 E5       G5 A5 B5 A5 B5 A5   

E|-------------------------------------------------|

H|-------------------------------------------------|

G|-------------------------------------------------|

D|-2--2--5--2--2--2--5--2--2--2--5--7--8--7--8--7--|

A|-2--2--5--2--2--2--5--2--2--2--5--7--8--7--8--7--|

         E|-0--0--3--0--0--0--3--0--0--0--3--5--6--5--6--5--| - 4 раза


Ты так хороша, когда ты без ничего,
Я восхищён твоей грудью и красивой ногой
Рука машинально соскальзывает вниз,
Но я так боюсь подхватить сифилис

Я отключаю свет и телефон,
А сам боюсь подхватить сифон
И я включаю тихо магнитофон,
А сам боюсь подхватить сифон

Проигрыш:

|Em  Em|Em  Em|Em  Em|Hm  Em| - 2 раза

|Am  Am|Hm  Hm|Em  Em|Em  Em| - 2 раза

Ты так грациозна на белой простыне,
Я весь дрожу и так хочется мне
Я не в силах удержаться, наши плоти слились,
И вот итог: я поймал сифилис

Гляжу на небо из больничных окон...
Какая жалость, что поймал я сифон!
Мои друзья бухают самогон,
А я в больнице, у меня сифон!
 
Последние комментарии

"Мне всегда слышалось " зато в руках заветный диск". И непонимание того, про кого все же песня: про расклейщиков афиш или коллекционеров разной атрибутики поп-идолов?"
 

"СУПЕР!"
 

"Спасибо!"
 

"На яндексмузыке, в сборниках Эдуарда Артемьева, эта песня длиннее - из 3-х куплетов. Добрая память замечательному композитору."
 

"Супер, вспомнил забытую вещь"
Вход на сайт