Accordium Delectus Подборка аккордов
 

Сектор Газа: Страх


Вступление(примерный вариант):

  Gm                 Cm                      Gm  

E|----------------------------------------------|

H|----------------------------------------------|

G|--------------------5----5--8--5----5--5-3----|

D|--------------------3----3--6--3----3--3-1----|

A|-5--8--5----5--5-8--------------------------5-|

E|-3--6--3----3--3-6--------------------------3-|

    Gm                                                Cm 
Однажды ночью мы видак смотрели с тобой,
        Cm                                                Gm   
Был фильм очень жуткий, под названием "Вой"
      Gm                                              Cm 
Ты мне сказала: "Юра, проводи меня домой,
     Cm                                                 Gm 
Сейчас мне очень страшно домой идти одной"

Припев:

  F                            C   
Вида при тебе я не подам,
   B                                Gm 
Что боюсь всего ведь я и сам
     F                                   C   
С понтом, я вообще неустрашим,
D                             Gm  
А у самого очко жим-жим!

Проигрыш:

  Gm                 Cm                      Gm  

E|----------------------------------------------|

H|----------------------------------------------|

G|--------------------5----5--8--5----5--5-3----|

D|--------------------3----3--6--3----3--3-1----|

A|-5--8--5----5--5-8--------------------------5-|

E|-3--6--3----3--3-6--------------------------3-|


Мы вышли на крыльцо, луна светили на село,
И тут меня от страха немного пронесло
Домой тебя повёл я на другой конец села,
А сзади штанина отвисала и текла

Припев:

Но вида при тебе я не подам,
Что боюсь всего ведь я и сам
Сделал вид, что я неустрашим,
А у самого очко жим-жим!

Проигрыш:

  Gm                 Cm                      Gm  

E|----------------------------------------------|

H|----------------------------------------------|

G|--------------------5----5--8--5----5--5-3----|

D|--------------------3----3--6--3----3--3-1----|

A|-5--8--5----5--5-8--------------------------5-|

E|-3--6--3----3--3-6--------------------------3-|


В дом ты влетела пулью, а я побежал назад,
В кромешной темноте мелькал изгаженный мой зад
Я всё ж дошёл до дома без проделок сатаны,
Но только вот придётся постирать свои штаны

Припев:

Хоть свои штаны я обдристал,
Но вида при тебе я не подал
Я в твоих глазах неустрашим,
Тайной будет случай про жим-жим!

Окончание:

  Gm                 Cm                      Gm  

E|----------------------------------------------|

H|----------------------------------------------|

G|--------------------5----5--8--5----5--5-3----|

D|--------------------3----3--6--3----3--3-1----|

A|-5--8--5----5--5-8--------------------------5-|

E|-3--6--3----3--3-6--------------------------3-|

Примерный вариант боя:


 
Последние комментарии

"Супер, вспомнил забытую вещь"
 

"ШИКАРНАЯ ПЕСНЯ!!!!"
 

"Шикарный голос! Слова песни, музыка завораживают! До слез."
 

"Ещё б ноты к этой песне."
 

"Класс!!!!!!"
Вход на сайт