Accordium Delectus Подборка аккордов
 
"
Главная > Д > Дроздов Сергей > Любовь моя, мечта моя

Сергей Дроздов (ВИА Синяя птица): Любовь моя, мечта моя



Смотреть в тональности Am

Вступление (примерный вариант перебора):

Em
E|-------0-------0-------0-------0-------0-------0-------0-------0---|
H|-----0-------0-------0-------0-------0-------0-------0-------0-----|
G|---0-------0-------0-------0-------0-------0-------0-------0-------|
D|-------------------------------------------------------------------|
A|---------2---------------2---------------2---------------2---------|
E|-0---------------0---------------0---------------0---------------0-|
соло
E|---7-5-7---7---7---7-5-7---7---7---7-5-7---7---7---7-5-7---7---7---|
H|---------8---7---5-------8---7---5-------8---7---5-------8---7---5-|
G|-------------------------------------------------------------------|
D|-------------------------------------------------------------------|
A|-------------------------------------------------------------------|
E|-------------------------------------------------------------------|

Em                                   Am               
Проходишь тихо ты по облаку,
H7                                 Em       
Руками тонкими маня
Em                                Am6             
По голубой, зелёной роздыни
H7                                 Em     
Уходишь слепо от меня

G                                  Am               
Перебирая звенья прошлого
D                                            G      
Уходит жизнь, листвой звеня,
G                            Am                
А я стою как завороженный,
      G                Am Am6 H7                      Em
Любовь моя, мечта моя       и боль моя-а-а-а

Проигрыш:

Em
E|-------0-------0-------0-------0---|
H|-----0-------0-------0-------0-----|
G|---0-------0-------0-------0-------|
D|-----------------------------------|
A|---------2---------------2---------|
E|-0---------------0---------------0-|
соло
E|---7-5-7---7---7---7-5-7---7---7---|
H|---------8---7---5-------8---7---5-|
G|-----------------------------------|
D|-----------------------------------|
A|-----------------------------------|
E|-----------------------------------|

Казалось мне, что будет так легко
Изгиб бровей твоих забыть
А мне весна пророчит заново
Страдать, надеяться, любить

Ты подожди, я за тобой пойду,
С цветов росу стряхнув небрежно
Ты подожди, я о тебе пою,
А солнце, как прежде, нам дарит нежность

Проигрыш:

Em                Am        H7                  Em      
E|-----------------------------------------------------|
H|-----------------------------------------------------|
G|-4--4-2-2-0--0-0----4>5------1>2--2-0-0--------------|
D|-----------------4------4---------------4--4-5-4---2-|
A|-----------------------------------------------------|
E|-----------------------------------------------------|
Em                  Am      H7                  Em      
E|-5>7-7--5-5-----------8------3>5-5-------------------|
H|------------8--8-8-7----7-----------8-8-7--7-8-7---5-|
G|-----------------------------------------------------|
D|-----------------------------------------------------|
A|-----------------------------------------------------|
E|-----------------------------------------------------|
G                          Am        D                    G       
E|-10---10-10-10-10--10-12-10--8--8--------8----8----8-10-8----7-|
H|-12---12-12-12-12--12-13-12--10-10----10---10---10---12-10---8-|
G|---------------------------------------------------------------|
D|---------------------------------------------------------------|
A|---------------------------------------------------------------|
E|---------------------------------------------------------------|
G                          Am               G            Am     Am6 H7                 Em  
E|-10---10-10-10-10--10-12-10--8--8-----8---10---7-7--7--10---8--8------------------------|
H|-12---12-12-12-12--12-13-12--10-10----10--12---8-8--8--12---10-10----5>7--7-8-7---------|
G|----------------------------------------------------------------------------------9>8>9-|
D|----------------------------------------------------------------------------------------|
A|----------------------------------------------------------------------------------------|
E|----------------------------------------------------------------------------------------|

И всё, что было нами пройдено,
В душе как колокольный звон
И всё, что было нами прожито,
Уходит снова с каждым днём

Перебирая звенья прошлого
Уходит жизнь, листвой звеня,
А я стою как завороженный,
Любовь моя, мечта моя и боль моя

Окончание:

Em
E|-------0-------0-------0-------0-------0-------0-------0-------0---|
H|-----0-------0-------0-------0-------0-------0-------0-------0-----|
G|---0-------0-------0-------0-------0-------0-------0-------0-------|
D|-------------------------------------------------------------------|
A|---------2---------------2---------------2---------------2---------|
E|-0---------------0---------------0---------------0---------------0-|
соло
E|---7-5-7---7---7---7-5-7---7---7---7-5-7---7---7---7-5-7---7---7---|
H|---------8---7---5-------8---7---5-------8---7---5-------8---7---5-|
G|-------------------------------------------------------------------|
D|-------------------------------------------------------------------|
A|-------------------------------------------------------------------|
   E|-------------------------------------------------------------------|...
 
Поделись с друзьями:
 
 
Последние комментарии

"супер подбор"
 

"Песня очень хорошая."
 
Владимир Князев «Игорь Кучин: В таверне

"спасибо за текст песни и аккорды"
 
Олег Тресоруков «Юрий Антонов: 20 лет спустя

"Звук с пластинки, какой кайф.)))"
 
Алексей Мурашев «ВИА Самоцветы: Мерси

"Песня моей молодости,когда то пел её под гитару. А вот сегодня почему то вспомнилась,а слова немного подзабылись."
Настройка гитары
1-ая струна E (ми)  

2-ая струна H (си)  

3-я струна G (соль) 

4-ая струна D (ре) 

5-ая струна A (ля) 

6-ая струна E (ми) 
Статистика

Онлайн всего: 29
Гостей: 29
Пользователей: 0
Вход на сайт