Accordium Delectus Подборка аккордов
 
Главная > Д > Дроздов Сергей > Забудь меня

Сергей Дроздов (ВИА Синяя птица): Забудь меня



Вступление:

 Asus2     A7sus2       F-5       Dsus2      
E|----------------------------------------0-|
H|-------0----------0----------0--------3---|
G|-----2----------2----------2--------2-----|
D|---2----------2----------3--------0-------|
A|-0----------------------------------------|
E|------------3----------1------------------|

   E                   Asus2     A7sus2      
E|------------------------------------------|
H|-------0----------0----------0----------0-|
G|-----1----------1----------2----------2---|
D|---2----------2----------2----------2-----|
A|-----------------------0------------------|
E|-0----------0---------------------3-------|

  F-5                  F-5/H                 
E|------------------------------------------|
H|-------0----------0----------0----------0-|
G|-----2----------2----------2----------2---|
D|---3----------3----------3----------3-----|
A|-----------------------2----------2-------|
E|-1----------1-----------------------------|

   E                   Asus2                 
E|------------------------------------------|
H|-------0----------0----------0----------0-|
G|-----1----------1----------2----------2---|
D|---2----------2----------2----------2-----|
A|-----------------------0----------0-------|
E|-0----------0-----------------------------|

|Am  Am7|Dm/F  Dm|E  E|Am  Am7|F  F|Dm6  Dm6|E  E|Am  Am|

Am                                           E7/G#                                     
Случайной нашей встречи           давно растаял свет,
          C                                               G    A7sus4 A7
И за разлуку лишь себя корю,
Dm                              Dm6            Am/C                 Am         
Но как всегда под вечер я смотрю на твой портрет
Dm                               Dm6         E   A7   
И будто вновь с тобою говорю

Припев:

          Dm               Dm6  
А ты забудь меня, забудь,
                Am/C               Am  
Попробуй в сердце зачеркнуть
              Dm                     G    
Не для тебя мой трудный путь,
 E                      Am
Он ведёт в никуда

         Dm/F             Dm6  
А ты забудь меня, забудь,
           Am/C              Am   
Былого счастья не вернуть,
                 Dm            Dm6 
И чтоб судьбу не упрекнуть,
E                          Am         
Забудь навсегда...

Проигрыш:

|Am  Am7|Dm/F  Dm|E  E|Am  Am7|F  F|Dm6  Dm6|E  E|Am  Am|

Моих давнишних писем ты второпях не жди,
Обиды злой любовь нам не простит
Пусть в вихре жёлтых листьев не слышны мои шаги,
Но ведь душа кричит тебе, кричит!

Припев.

Окончание:

|Am  Am7|Dm/F  Dm|E  E|Am  Am7|F  F|Dm6  Dm6|E  E|Am  Am|...

Бой на гитаре (примерный вариант):

 
Последние комментарии

"Абсолютно!"
 

"Прекрасно!"
 

"50 лет эту песню слушаю и пою, 50 лет восхищаюсь"
 

"🔥Привет всё хорошо мне всё понравилось,нравится я в восторге и радуюсь наслаждаясь такой прекрасной правильной умной даже нравственной песне. Спасибо! Антон из Челябинска пока 🖐"
 

".....аккорды ложь....там увеличенные септы, девятки-ноны, 11...."
Вход на сайт