Accordium Delectus Подборка аккордов
 
Главная > Н > Никитин Сергей > За невлюблёнными людьми

Сергей и Татьяна Никитины: За невлюблёнными людьми

(на стихи Юнны Мориц)
 


Вступление (примерный вариант перебора):

1-я часть

Am          Am7          D           E          
E|-------------------------------2-----------0-----|
H|-------1-----------1---------3---3-------0---0---|
G|-----2---2-------2---2-----2-------2---1-------1-|
D|---2-------2---2-------2-0-----------------------|
A|-0-----------------------------------------------|
         E|-------------3-----------------------0-----------| - 2 раза
  Am          Am7          D           G            
E|-------------------------------2-----------3-----|
H|-------1-----------1---------3---3-------0---0---|
G|-----2---2-------2---2-----2-------2---0-------0-|
D|---2-------2---2-------2-0-----------------------|
A|-0-----------------------------------------------|
E|-------------3-----------------------3-----------|
   C          C+5        Am/C          C7           
E|-------------------------------------------------|
H|-------1-----------1-----------1-----------1-----|
G|-----0---0-------1---1-------2---2-------3---3---|
D|---2-------2---2-------2---2-------2---2-------2-|
A|-3-----------3-----------3-----------3-----------|
E|-------------------------------------------------|
   F           A7         Dm           G            
E|-------------------0-----------1-----------3-----|
H|-------1---------2---2-------3---3-------0---0---|
G|-----2---2-----0-------2---2-------2---0-------0-|
D|---3-------3-------------0-----------------------|
A|-------------0-----------------------------------|
E|-1-----------------------------------3-----------|
   G           E          E-9    E      
E|-------3-----------0-----1-----0-----|
H|-----0---0-------0---0-----0-----0---|
G|---0-------0---1-------1-----1-----1-|
D|-------------------------------------|
A|-------------------------------------|
E|-3-----------0-----------0-----------|

2-я часть

  Am          Am7          D           E            
E|-------------------------------2-----------0-----|
H|-------1-----------1---------3---3-------0---0---|
G|-----2---2-------2---2-----2-------2---1-------1-|
D|---2-------2---2-------2-0-----------------------|
A|-0-----------------------------------------------|
E|-------------3-----------------------0-----------|
  Am          Am6          H7         Em            
E|-------------------5-----------2-----------0-----|
H|-------1---------5---5-------0---0-------0---0---|
G|-----2---2-----5-------5---2-------2---0-------0-|
D|---2-------2-4-----------------------------------|
A|-0-----------------------2-----------------------|
E|-------------------------------------0-----------|
  Em          Em+7        Em7         Em6           
E|-------0-----------0-----------0-----------0-----|
H|-----0---0-------0---0-------0---0-------0---0---|
G|---0-------0---0-------0---0-------0---0-------0-|
D|-2-----------1-----------0-----------------------|
A|-------------------------------------4-----------|
E|-------------------------------------------------|
 Cmaj7         H7         Em           E             
E|-------0-----------2-----------0-----------0-----|
H|-----0---0-------0---0-------0---0-------0---0---|
G|---0-------0---2-------2---0-------0---1-------0-|
D|-------------------------------------------------|
A|-3-----------2-----------------------------------|
E|-------------------------0-----------0-----------|

Текст во время 2-ой части вступления:

За невлюблёнными людьми
Любовь идёт, как привидение,
И перед призраком любви
Попытка бить на снисхождение - какое заблуждение!

Любви прозрачная рука
Однажды так сжимает сердце,
Что розовеют облака
И слышно пение в каждой дверце

------------------------------------------------------------

Am                 Am7                  D                    E                  Am       
За невлюблёнными людьми, (за невлюблёнными людьми)
             Am7                  D                      G                    C       
Любовь идёт, как привидение (любовь идёт, как привидение)
                           C+5             Am/C  C7
Сражаться с призраком любви,
     F               A7           Dm       G
Брать от любви освобождение -
E        
Какое, какое заблуждение!

Am              Am7                D  E    
Все поезда, все корабли
Am                 Am6     H7         Em           
Летят в одном семейном круге,
   Em           Em+7              Em7  Em6
Они - сообщники любви,
Cmaj7          H7              Em   E        
Её покорнейшие слуги

Припев:

Am      Em       Am
Дрожь всех дождей,
F                G   Gm6              A7
Пыль всех дорог, соль всех морей,
F       G         C    
Боль всех разлук —
      Am6 H7     Em       A/C#
Вот       её кольца,
Dm               G       Cmaj7
Кольца прозрачных рук,
  D              Dm       Esus4 E      Am
Крыльев прозрачных свет      и звук

Проигрыш:

  Am          Am7          D           E            
E|-------------------------------2-----------0-----|
H|-------1-----------1---------3---3-------0---0---|
G|-----2---2-------2---2-----2-------2---1-------1-|
D|---2-------2---2-------2-0-----------------------|
A|-0-----------------------------------------------|
E|-------------3-----------------------0-----------|

За невлюблёнными людьми, (за невлюблёнными людьми)
Любовь идёт, как привидение
В словах любви, в слезах любви
Сквозит улыбка возрождения,
Улыбка возрождения

И даже легче, может быть,
С такой улыбкой негасимой
Быть нелюбимой, но любить,
Чем не любить, но быть любимой

Припев.

Окончание:

  Am          Am7          D           E            
E|-------------------------------2-----------0-----|
H|-------1-----------1---------3---3-------0---0---|
G|-----2---2-------2---2-----2-------2---1-------1-|
D|---2-------2---2-------2-0-----------------------|
A|-0-----------------------------------------------|
   E|-------------3-----------------------0-----------|...
 


 
Последние комментарии

"Шедевр!!!"
 

"Нето фуфло паешь Врешь сука."
 

"С третьего аккорда начинается неправильные аккорды вы сами играете или переписываете у других?"
 

"Кто подскажет где скачать минусовку? Буду очень благодарен. Песня отличная."
 

"вспомнила молодость"
Статистика

Онлайн всего: 114
Гостей: 113
Пользователей: 1
Justas
Вход на сайт