Accordium Delectus Подборка аккордов
 
Главная > П > Павлов Сергей > Горит свеча...

Сергей Павлов: Горит свеча...




В оригинале на тон и на пол-тона ниже (Dm и D#m)


Вступление (примерный вариант перебора):

Em                                              
E|-------0-----------0-----------0-----------0-----|
H|-----0---0-------0---0-------0---0-------0---0---|
G|---0-------0---0-------0---0-------0---0-------0-|
D|-------------------------------------------------|
A|-------------------------------------------------|
E|-0-----------0-----------0-----------0-----------|

  Am                      Em                        
E|-------0-----------0-----------0-----------0-----|
H|-----1---1-------1---1-------0---0-------0---0---|
G|---2-------2---2-------2---0-------0---0-------0-|
D|-------------------------------------------------|
A|-0-----------0-----------------------------------|
E|-------------------------0-----------0-----------|

   H7                     Dm           E             
E|-------2-----------2-----------1-----------0-----|
H|-----0---0-------0---0-------3---3-------0---0---|
G|---2-------2---2-------2---2-------2---1-------1-|
D|-------------------------0-----------2-----------|
A|-2-----------2-----------------------------------|
E|-------------------------------------------------|

  Am                      Em                        
E|-------0-----------0-----------0-----------0-----|
H|-----1---1-------1---1-------0---0-------0---0---|
G|---2-------2---2-------2---0-------0---0-------0-|
D|-------------------------------------------------|
A|-0-----------0-----------------------------------|
E|-------------------------0-----------0-----------|

   H7                     Em                         
E|-------2-----------2-----------0-----------0-----|
H|-----0---0-------0---0-------0---0-------0---0---|
G|---2-------2---2-------2---0-------0---0-------0-|
D|-------------------------------------------------|
A|-2-----------2-----------------------------------|
E|-------------------------0-----------0-----------|

Em                                       
А нам сегодня пятьдесят,
Am                                  
А это ведь не вечер,
H7                                         
И годы быстро так спешат,
Em                               
И догорают свечи!

Am                                          
А годы быстро так спешат,
Em                               
И догорают свечи,
H7                                            
А нам ведь только пятьдесят,
           Em                                 
А это ведь не вечер!

Припев:

   Am                Em           
Горит свеча, стекает воск,
                     H7                       Dm               E              
Посеребрила жизнь височный лоск!
   Am                       Em    
Горит свеча, стекает воск,
             H7               Em               
Посеребрила жизнь височный лоск!


И жизнь ведь не прошла,
А началась сначала!
Вот только молодость ушла
До мудрости причала!

И только молодость ушла
До мудрости причала,
А жизнь ведь не прошла,
А началась сначала!

Припев.

Проигрыш: H7  Em  Am  H7  Em

Am                                             
А годы быстро так спешат,
Em                                 
И догорают свечи,
H7                                             
А нам ведь только пятьдесят,
       Em                       E    
А это ведь не вечер!

А годы быстро так спешат,
И догорают свечи,
А нам ведь только пятьдесят,
 Em                       
А это ведь не вечер!

Проигрыш: Am  Em  H7  Dm  E

     Am                        Em     
Горит свеча, стекает воск,
                     H7        Em              
Посеребрила жизнь височный лоск!
 


 
Последние комментарии

"Очень понравилась песня!!!! 👍
 

"Виктор Кто автор слов и музыки???"
 

"С праздником!"
 

"Песня СУПЕР!!!!"
 

"У меня есть поэтический перевод данной песни и ещё нескольких вещей Песняров. Можно прочитать в творческой группе ВК и на Стихи.ру (легко находится через поисковик)"
Статистика

Онлайн всего: 29
Гостей: 29
Пользователей: 0
Вход на сайт