Accordium Delectus Подборка аккордов
 

Сергей Проханов: Колыбельная (фильм Усатый нянь)



  Am              Em     Am                Em      
E|-0↑--------------0↓-0↑--0↑----------------0↓-0↑-|
H|-1↑--------------0↓-0↑--1↑----------------0↓-0↑-|
G|-2↑--------------0↓-0↑--2↑----------------0↓-0↑-|
D|-2↑--------------2↓-2↑--2↑----------------2↓-2↑-|
A|-0↑--------------2↓-2↑--0↑----------------2↓-2↑-|
E|-----------------0↓-0↑--------------------0↓-0↑-|
   А баюшки-баюшки,       уж вы, мои заюшки,       

  Am                   Em     Am                               
E|-0↑-------------------0↓-0↑--0↑------------0↓-0↑--0↑--0↓-0↑-|
H|-1↑-------------------0↓-0↑--1↑------------1↓-1↑--1↑--1↓-1↑-|
G|-2↑-------------------0↓-0↑--2↑------------2↓-2↑--2↑--2↓-2↑-|
D|-2↑-------------------2↓-2↑--2↑------------2↓-2↑--2↑--2↓-2↑-|
A|-0↑-------------------2↓-2↑--0↑------------0↓-0↑--0↑--0↓-0↑-|
E|----------------------0↓-0↑---------------------------------|
   А и где ж вы бегали?        А и что вы дела-----ли?         

   D                         Am                   
E|--------2---2------2---2--------0---0---0----0-|
H|--------------------------------1--------------|
G|----------2------2---2--------2---2---2----2---|
D|-0---------------------------------------------|
A|----------------------------0------------------|
E|-----------------------------------------------|
   Уж мы бегали в лесу,                           

   D                         Am                   
E|------2-----2----2---2----------0---0---0----0-|
H|--------------------------------1--------------|
G|---2-----2-----2---2----------2---2---2----2---|
D|-0---------------------------------------------|
A|----------------------------0------------------|
E|-----------------------------------------------|
  Били волка по носу,                             

   D                         Am                   
E|------2----2---2---2------------0---0---0----0-|
H|--------------------------------1--------------|
G|----2---2----2---2------------2---2---2----2---|
D|-0---------------------------------------------|
A|----------------------------0------------------|
E|-----------------------------------------------|
  Запрягали комара,                               

   D                         Am                   
E|------2----2-----2---2----------0---0---0----0-|
H|--------------------------------1--------------|
G|---2----2------2---2----------2---2---2----2---|
D|-0---------------------------------------------|
A|----------------------------0------------------|
E|-----------------------------------------------|
  По-езжали по дрова                              

Окончание:

   D                         Am                   
E|------2----2-----2---2----------0---0---0----0-|
H|--------------------------------1--------------|
G|---2----2------2---2----------2---2---2----2---|
D|-0---------------------------------------------|
A|----------------------------0------------------|
         E|-----------------------------------------------| - 2 раза

   D                         Am    
E|------2----2-----2---2----------|
H|--------------------------------|
G|---2----2------2---2----------2-|
D|-0------------------------------|
A|----------------------------0---|
E|--------------------------------|
 


 
Последние комментарии

"Спасибо! отличная песня."
 

"Интересно кто так бездарно подбирает?! В оригинале слабо что ли?"
 

"Простая и в тоже время прекрасная,душевная песня.Спасибо!"
 

"Дзякуй"
 

"Показать окорды"
Статистика

Онлайн всего: 52
Гостей: 52
Пользователей: 0
Вход на сайт