Accordium Delectus Подборка аккордов
 

Сергей Ревтов: Дом убит

(слова Михаила Гуцериева, музыка Сергея Ревтова)


Вступление (вариант боя):

  Dm       Dm7       E7/H      E7       
E|-----1--------1---------0--------0---|
H|-----3--------3---------3--------3---|
G|---2---2----2---2-----1---1----1---1-|
D|-0---------------------------2-------|
A|----------3---------2----------------|
E|-------------------------------------|

 Gm/B      A7     Dm     E7-5  A7      
E|-----3-------0-------1---0---0-------|
H|-----3-------2-------3---3---2-------|
G|---0---0---0---0---2---2---3---0-----|
D|-----------------0-------2-----------|
A|-1-------0-------------------0-------|
E|-------------------------------------|

  Cm        D7     Gm      Gm6          
E|------3-------2-------3-------3------|
H|------4-------1-------3-------3------|
G|----5---5---2---2---3---3---3---3----|
D|----------0--------------------------|
A|-3-----------------------------------|
E|------------------3-------0----------|

 Dm/A      A7     Dm     Dsus2>Dm       
E|-----1-------0-------1---0---1-------|
H|-----3-------2-------3---3---3-------|
G|---2---2---0---0---2---2---2---2-----|
D|-----------------0-------------------|
A|-0-------0---------------------------|
E|-------------------------------------|

     Dm                       Dm/F     
Алыча перестала быть кислой,
             E7                        E7/G#
Из далёкой, щемящей тоски
     Gm                     Gm/B    
Улыбаются гроздьями вишни,
                  A7                          C#dim
Ржавый гвоздь из пробитой доски

           Dm                      Dm/F   
Старый дом бесконечно целебен:
          E7                      E7/G#
Из развалин, чихающих пыль,
         Gm                         Gm/B      
Распустил крылья кованый лебедь -
             A7              C#dim
Дом чужую вину искупил

        Cm                        D7     
Из живущих осталась черешня,
        Gm                      Gm/B
А других не осталось совсем
C                     
Я судьбой наизнанку повешен
F            
Между прошлым и небытием

Bmaj7                
Столб кривой из столетнего лета -
Gm                   
Рвётся ввысь телефонная трель:
         Gm6                  Em7-5
Голос детский забытого века
              A7sus4 C#dim7                       Dm  Dsus2
Зазвучал,              вырываясь из стен

Припев:

       Dm        Dm7      E7/H     E7
Я иду по чужим адресатам -
     Gm/B       A7            Dm 
Безымянная жертва времён
E7-5>A7     Cm          D7          Gm    Gm6  
У войны поднебесье крылато,
                         Dm/A      A7                  Dm  Dsus2>Dm
Дом невинный     жестоко казнён

--------------------------------------------------------------------------------------------------------

         Dm                     Dm/F      
Тлеет пень от палящего солнца,
          E7                      E7/G#
Защищаясь ползучей смолой
        Gm                           Gm/B  
От жары воздух рыхлый трясётся,
              A7                             C#dim
Дом бездомный сравнялся с землёй

         Cm                           D7      
Вкус обиды, прокуренный болью,
          Gm                        Gm/B
С покорёженных, серых оград
C                   
Смотрит чиж, упиваясь любовью,
F                           
Прилетевший с червонных Карпат

Bmaj7                  
Память прошлое намертво режет,
Gm                    
Разум наглухо гневом разбит
        Gm6                  Em7-5    
Возвожу благолепие в степень:
                 A7sus4  C#dim                      Dm    Dsus2
Я - исчадье             прощённых обид

Проигрыш:

  Dm       Dm7       E7/H      E7       
E|-----1--------1---------0--------0---|
H|-----3--------3---------3--------3---|
G|---2---2----2---2-----1---1----1---1-|
D|-0---------------------------2-------|
A|----------3---------2----------------|
E|-------------------------------------|

 Gm/B      A7     Dm     E7-5  A7      
E|-----3-------0-------1---0---0-------|
H|-----3-------2-------3---3---2-------|
G|---0---0---0---0---2---2---3---0-----|
D|-----------------0-------2-----------|
A|-1-------0-------------------0-------|
E|-------------------------------------|

  Cm        D7     Gm      Gm6          
E|------3-------2-------3-------3------|
H|------4-------1-------3-------3------|
G|----5---5---2---2---3---3---3---3----|
D|----------0--------------------------|
A|-3-----------------------------------|
E|------------------3-------0----------|

 Dm/A      A7     Dm       B            
E|-----1-------0-------1-------6-------|
H|-----3-------2-------3-------6-------|
G|---2---2---0---0---2---2---7---7-----|
D|-----------------0-------------------|
A|-0-------0---------------------------|
E|-------------------------6-----------|

Припев

            D#m      D#m7       F7/C     F7
Дом убит в переулке распятом,
     G#m/H      B             D#m
Безымянная жертва времён
      G#m6>B       C#m       D#7         G#m      G#m6
Взгляд войны беспощадно крылатый,
               D#m/B     B                  D#m   H7
Дом невинный    жестоко казнён

          Em         Em7     F#7/C#    F#
Я иду по чужим адресатам,
     Am/C       H7            Em
Безымянная жертва времён
Am6>H7     Dm          E7          Am      Am6
У войны поднебесье крылато,
        Em/H      H7                 Em  
Дом невинный    жестоко казнён,
            C         H7                     Em  
Дом невинный,    родительский дом,
                    C         H7  Em
Дом невинный...
 
Последние комментарии

"Сергей Дроздов - легендарный вокалист "Синей птицы" , а это что за круглый однофамилец и тезка???"
 

"Абсолютно!"
 

"Прекрасно!"
 

"50 лет эту песню слушаю и пою, 50 лет восхищаюсь"
 

"🔥Привет всё хорошо мне всё понравилось,нравится я в восторге и радуюсь наслаждаясь такой прекрасной правильной умной даже нравственной песне. Спасибо! Антон из Челябинска пока 🖐"
Вход на сайт