Accordium Delectus Подборка аккордов
 

Сергей Скачков (экс-Земляне): Сердце



Вступление:

 Cmaj7        H7       Asus2        H7                 
E|---------------------------------------------------|
H|-----1----------0----------0------------0----------|
G|-------4----------2----------2--------2------------|
D|---2----------1----------2----------1--------------|
A|-3----------2----------0----------2----------------|
E|---------------------------------------------5>7>5-|

  Em             Em6         Aadd9        Em6         
E|---------------------------------------------------|
H|---------------------------------------------------|
G|-------0--------------0-------------2--------2-0---|
D|-----2--------------2-------------2----------------|
A|---2--------------4-------------4----------4-------|
E|-0--------------0-------------0----------0---------|
Уходят дни    дорогой лунной        

 Cmaj7         H7       Asus2        H7                 
E|----------------------------------------------------|
H|-----1-----------0----------0------------0----------|
G|-------4-----------2----------2--------2------------|
D|---2-----------1----------2----------1--------------|
A|-3-----------2----------0----------2----------------|
E|----------------------------------------------5>7>5-|
Туда, откуда нет пути                      

  Em              Em6         Aadd9        Em6         
E|----------------------------------------------------|
H|----------------------------------------------------|
G|-------0---------------0-------------2--------2-0---|
D|-----2---------------2-------------2----------------|
A|---2---------------4-------------4----------4-------|
E|-0---------------0-------------0----------0---------|
 И скажут на прощанье   люди           

 Cmaj7           H7         Asus2        H7             
E|----------------------------------------------------|
H|-----1-------------0------------0------------0------|
G|-------4-------------2------------2--------2--------|
D|---2-------------1------------2----------1----------|
A|-3-------------2------------0----------2------------|
E|----------------------------------------------------|
С кем довелось его пройти                  

Припев:

C                                                        G           
И если рвёшь ты сердце словно струны,
Am                                          D       
Словно ветер парус корабля,
C                                              G              
А любовь твоя как дождь безумный,
Am                        Hm                    C   H7  
Значит на земле живёшь не зря


Em                        Em6              Aadd9   Em6
Пусть всё не просто, скажут люди,
D>C                        H7               Am   H7    
Ведь в жизни лёгких нет путей,
Em                      Em6            Aadd9   Em6
И пусть в конце не стыдно будет
D>C                         H7            Am   H7   
Смотреть в глаза своих детей

Припев:

И если рвёшь ты сердце словно струны,
Словно ветер парус корабля,
А любовь твоя как дождь безумный,
Am                        Hm                    C         
Значит на земле живёшь не зря

Проигрыш:

|C  C|G  G|Am  Am|D  D|

|C  C|G  G|Am  Hm|C  C|

Припев:

И если рвёшь ты сердце словно струны,
Словно ветер парус корабля,
А любовь твоя как дождь безумный,
Am                     H7sus4                 C        
Значит на земле живёшь не зря

Окончание:

   C                             Gsus4       G   Gsus4     G        
E|-----------0---------------0-------------------------------------|
H|-------1---------------1---------------1---0-----------1---0-----|
G|-----0-------0-------0-------0-------0-------0-------0-------0---|
D|---2-----2-----2---2-----2-----2---0-----0-----0---0-----0-----0-|
A|-3---------------3-----------------------------------------------|
E|---------------------------------3---------------3---------------|

 Asus2             H7             Em                    
E|--------------------------------------------------0-|
H|-------0---0---------0-----0-----------0---0------0-|
G|-----2-------2---------2-----2-------0-------0----0-|
D|---2-----2-----2---1-----1-----1---2-----2-----2--2-|
A|-0---------------2--------------------------------2-|
E|---------------------------------0----------------0-|
Значит на земле живёшь   не зря              

Бой на гитаре (примерный вариант):

 


 
Последние комментарии

"Показать окорды"
 

"Удивительная, нежная песня как раз для Кати..."
 

"Володья Путен правит на Руси. Всё хорошо при нём кого ты не спроси - Олимпиады проводил, В сакральные места ходил и террористов он в сортире замочил. Но вот когда его немножечко того Тогда узнаем мы всю правду про него - Что из бюджета воровал И с Украиной воевал, И экономике при нём пришёл обвал..."
 

"Классно!!! Несколько раз подряд слушала, нравится песня и исполнение. Спасибо."
 

"Жаль,раньше не слышала эту песню,теперь буду петь про 60 лет.."
Статистика

Онлайн всего: 102
Гостей: 102
Пользователей: 0
Вход на сайт