Accordium Delectus Подборка аккордов
 
Главная > Т > Трофим > Непогода

Сергей Трофимов (Трофим): Непогода



Вступление:

Dm          Dm/F          Gm          Em7-5         
E|---------------------------------------------0-------|
H|------3------------3------------3---------------3----|
G|---------2------------2------------3-------0-------0-|
D|----3-------3----3-------3----5-------5--------------|
A|-5--------------------------------------1------------|
         E|--------------1------------3-------------------------| - 2 раза

  Dm          Dm/F          Gm          Em7-5                                    
E|---------------------------------------------0---------------------------------|
H|------3------------3------------3---------------3---------3------------3-------|
G|---------2------------2------------3-------0-------0---------2------------2----|
D|----3-------3----3-------3----5-------5-----------------3-------3----3-------3-|
A|-5--------------------------------------1------------5-------------------------|
E|--------------1------------3--------------------------------------1------------|
  Дождь,                             зарядил под утро дождь                       

  Gm            C               F           F/A                                
E|----------------------------------------------------------------------------|
H|------3------------1---------------1------------1---------------------------|
G|---------3------------0---------------2------------2------------------------|
D|----5-------5----2-------2-------3-------3----3-------3---------------------|
A|--------------3----------------------------0--------------------------------|
E|-3----------------------------1---------------------------------------------|
       Дождь сечёт, как острый нож,                                            

   B         Gm     A7sus4          A                                          
E|----------------------------------------------------------------------------|
H|------3--1----------------3------------2------------------------------------|
G|------3--2--3--2--0----------0------------2---------------------------------|
D|----3-------5--3--2-----2-------2----2-------2------------------------------|
A|-1-------------------0------------0-----------------------------------------|
E|----------------------------------------------------------------------------|
       За-копчённы--е лица                                                     

Грязь, на колёса липнет грязь,
Дизеля, привычно злясь,
Тащат нас на границу

Припев:

Dm          Dm/F          Gm         C F            B                         
E|-------------------------------------------------------------------------------|
H|------3------------3------------3--1------1------------3-----------------------|
G|---------2------------2------------0---------2------------3--------------------|
D|----3-------3----3-------3----5---------3-------3----3-------3-----------------|
A|-5---------------------------------3--------------1----------------------------|
E|--------------1------------3---------1-----------------------------------------|
Непогода,     братишка,   в душе,  не-пого----о------да                               

  Gm6           A           Dm          Dm/F          Gm          Em7-5           
E|-----------------------------------------------------------------------0-------|
H|------3------------2------------3------------3------------3---------------3----|
G|---------3------------2------------2------------2------------3-------0-------0-|
D|----5-------5----2-------2----3-------3----3-------3----5-------5--------------|
A|--------------0------------5--------------------------------------1------------|
E|-0--------------------------------------1------------3-------------------------|
      А нам служить  ещё полгода                                                  

Страх, глубоко под сердцем страх,
Cмepть всего в пяти шагах
Наше время считает

Дом, далеко отсюда дом,
Наши мамы в доме том
По солдатам скучают

Припев.

Дождь, зарядил под утро дождь,
БТР кидает в дрожь,
Матерится механик

Жди, что там будет впереди,
Может, здешние дожди
Пощадят наш "Титаник"

Припев:

Непогода, братишка, в душе, непого-о-да,
      Gm6                   A               Dm   Dm/F  Gm
А нам служить ещё полгода
                     Em7-5            Dm   Dm/F  Gm
Нам служить ещё полгода...
Нам служить ещё полгода...
Нам служить ещё полгода...
Нам служить ещё полгода...
Нам служить ещё полгода...
Нам служить ещё полгода...
                                        Em7-5            Dm   Dm/F  Gm  Em7-5  Dm
Нам служить ещё полгода...
 


 
Последние комментарии

"Спасибо! отличная песня."
 

"Интересно кто так бездарно подбирает?! В оригинале слабо что ли?"
 

"Простая и в тоже время прекрасная,душевная песня.Спасибо!"
 

"Дзякуй"
 

"Показать окорды"
Статистика

Онлайн всего: 48
Гостей: 48
Пользователей: 0
Вход на сайт