Accordium Delectus Подборка аккордов
 

Сергей Варчук: Вьюн над водой (фильм Не могу сказать "прощай")



  Am
E|---------5---------------5-------|
H|-----5-------5-------5-------5---|
G|---5---5---5---5---5---5---5---5-|
D|---------------------------------|
A|-0---------------0---------------|
E|---------------------------------|

  Am                                Dm                  Am            
E|-----5---8---7---8>7-5-------5----10-------8---7---5-7-8>7-5-------|
H|-5-----------------------5--------------10---------------------5---|
G|-----------9---7-------5---5---5-----10----------7-----------5---5-|
D|---5---5--------------------------0------------0-------------------|
A|-0---------------0-------------------------------------0-----------|
E|-------------------------------------------------------------------|
 Вью----ун  над во---до-о--ой,          ой вью-----------ун над  во-одо--о-ой,           

        G                 C     Dsus4 Dm  E              Am                
E|-5----3-----3---5---3-1-0-------3---1---0-----0-8---7---5-------5-------|
H|----------0-----------------1---------------0---------------5-------5---|
G|---5----0---------0-------0---0---2---2---0-------7---7---5---5---5---5-|
D|--------------------------------0---------------------------------------|
A|------------------------3-------------------------------0---------------|
E|------3---------------------------------0-------0-----------------------|
     Ой вью-------ун над  во-о-дой        рас-сти--ла----------е----ет--ся                            

Жених у ворот,
Ой, жених у ворот,
Ой, жених у ворот дожидается.

Вынесли ему,
Ой, вынесли ему,
Ой, вынесли ему сундуки, полны добра

"Это не моё,
Ой, это не моё,
Это не моё, это деверя мово"

Вывели ему,
Ой, вывели ему,
Ой, вывели ему Свет-Настасьюшку

"Это вот моё,
Ой, это вот моё,
Это вот моё, Богом суженое"
 


 
Последние комментарии

"милая , добрая песня!"
 

"Спасибо, здорово. Спасибо!"
 

"Класс!"
 

"чудесно, обожаю"
 

"только в последнем припеве - A D "Видно рядом со счастьем" аккорды не подходят"
Статистика

Онлайн всего: 121
Гостей: 121
Пользователей: 0
Вход на сайт