Accordium Delectus Подборка аккордов Главная Отзывы Заявка на песню Аккорды Табы Новости Видео Статьи FAQ О сайте
А   Б   В   Г   Д   Е   Ё   Ж   З   И   Й   К   Л   М   Н   О   П   Р   С   Т   У   Ф   Х   Ц   Ч   Ш   Щ   Э   Ю   Я
 
A   B   C   D   E   F   G   H   I   J   K   L   M   N   O   P   Q   R   S   T   U   V   W   Y   Z                       0...9
"
Разделы сайта
                   
Настройка гитары
1-я струна E  

2-я струна H  

3-я струна G  

4-я струна D  

5-я струна A  

6-я струна E  
Главная > T > Tankian Serj > Saving Us

Serj Tankian: Saving Us



Вступление (примерный вариант):

E|--------------------------------------------------|

H|-----1-----1-----1-----1------0-----0-----0-----0-|

G|---2-----2-----2-----2------0-----0-----0-----0---|

D|--------------------------------------------------|

A|--------------------------------------------------|

         E|-0-----0-----0-----0------0-----0-----0-----0-----| - 2 раза

 

E|--------------------------------------------------|

H|--------------------------------------------------|

G|-----3-----3-----3-----3------0-----0-----0-----0-|

D|---4-----4-----4-----4------2-----2-----2-----2---|

A|--------------------------------------------------|

E|-0-----0-----0-----0------0-----0-----0-----0-----|

 

E|---------------------------------------0----------|

H|--------------------------------0------0----------|

G|-----2-----2-----2-----2------0---0----0----------|

D|---2-----2-----2-----2------2-------2--2----------|

A|---------------------------------------2----------|

E|-0-----0-----0-----0------0------------0----------|


   Am                        
Why do we sit around 
        Em                                         
And break each other's hearts tonight 
   Am                              
Why do we dance around 
    Em                                     
The issues 'till the morning light 

    F#                       
When we sit and talk 
       Em                                   
And tear each other's lives apart 
Am                                   Em
You were the one to tell me go 


But you were the one for me 
And now you're going through the door 
When you take that step 
I love you baby more and more 

We need to laugh and sing and cry 
And warm each other's hearts tonight 
    Am                                   
Observing the fun of everything 
      Em                                   
And loving all our mother's God

Припев:

Em                                   
Tearing us, you're tearing us 
             G                                         
You're breaking us, you're breaking us 
          Am                               
You're carrying us, carrying us 
           C                       D           
You're saving us, you're saving us 

You're tearing us, you're tearing us 
You're breaking us, breaking us 
You're killing us, killing us 
             C           D
You're saving us 


Why do we sit around 
And break each other's hearts tonight 
Why do we dance around 
The issues 'till the morning light 

When we sit and talk 
And tear each other's lives apart 
You were the one to tell me go 


But you were the one for me 
And now you're going through the door 
When you take that step 
I love you baby more and more 

We need to laugh and sing and cry 
And warm each other's hearts tonight 
Observing the fun of everything 
And loving all our mother's God

Припев.

Проигрыш: D(b)  H(b)  B(b)  C(b) C#(b) - 2 раза

D#(b)              
Forever alive, 
C(b)              
Forever alive, 
         H(b)    C#(b)  D(b)
Forever, forever

Forever alive, 
Forever alive, 
   H(b)  C#(b)                 D(b) 
Forever, never and ever again

Припев - 3 раза.

Окончание=Вступление
 
Ещё песни:
 

 
 
Новые добавления
Статистика

Онлайн всего: 71
Гостей: 70
Пользователей: 1
Justas

Яндекс.Метрика

Вход на сайт