Accordium Delectus Подборка аккордов
 
Главная > Ш > ШопенГауэр > Отпускать

ШопенГауэр: Отпускать



Вступление:

E|--------------------------------------|
H|--------------------------------------|
G|--------------------------------------|
D|--------------------------------------|
A|-3-2-0------------------3----5--------|
E|----------0-1--1-1----1--------3--3-3-|

E|--------------------------------------|
H|--------------------------------------|
G|--------------------------------------|
D|--------------------------------------|
A|-3-2-0------------------3----5--------|
E|----------0-1--1-1----1--------3------|

|Am  F|C  G| - 2 раза

Am               C              
Тянет, тянет,
G                                 Am     
Ноет, стонет да пройдёт
     C
Будто ранит,
G                                   F      
Будто снова кровь идёт

                         C
Чуть не ладится погода,
            G                  F   
Заскрипит в груди опять
                           C
Мне пора бы год от года
       G               Am  
Научиться отпускать

Проигрыш:

|Am  F|C  G| - 2 раза

Разозлился,
Сигарет потерян счёт
Веселился,
Вышло всё наоборот

Зло съедает мой рассудок
И не хочется в кровать
Я без сна четверо суток,
Заеб...ся отпускать

Проигрыш:

|Am  F|C  G| - 4 раза

Здравствуй, мама!
Так налей же мне чайку
Будет рано,
Снова тихо я уйду

Материнский взгляд в оконце
Будет тихо провожать
Над землёй сияет солнце,
Как же больно отпускать!

Окончание:

|Am  F|C  G| - 4 раза |A|

Бой на гитаре (примерный вариант):

 
Последние комментарии

"Большое спасибо!"
 

"Ух, да здравствуют зимние гуляния! Замечательная песенка в тему! 😊"
 

"вдумчивая песня"
 

"Можно попробовать для хоровода"
 

"прошу минусовку,т.е одну мелодию без слов и нет таковой."
Вход на сайт