Accordium Delectus Подборка аккордов
 
Главная > Ш > Штар > Белый снег

Штар: Белый снег



Вступление:

E|:-----------------------------------------------------------------|
H|:-------0-------0-------0-------0-------0-------0-------0-------0-|
G|:-----5-------5-------5-------5-------5-------5-------5-------5---|
D|:---2-------2-------2-------2-------2-------2-------2-------2-----|
A|:---------------------------------0---------------0---------------|
E|:-3---------------3-----------------------------------------------|

E|-----------------------------------------------------------------:|
H|-------0-------0-------0-------0-------0-------0-------0-------0-:|
G|-----5-------5-------5-------5-------5-------5-------5-------5---:|
D|---3-------3-------3-------3-------3-------3-------3-------3-----:|
A|-0---------------0-----------------------------------------------:|
         E|---------------------------------3---------------3---------------:| - 2 раза

E|------------------------------------------------------------------|
H|-------3-------3-------3-------3-------3-------3-------3-------3--|
G|-----5-------5-------5-------5-------5-------5-------5-------5----|
D|---6-------6-------6-------6-------4-------4-------4-------4------|
A|------------------------------------------------------------------|
E|-4---------------4---------------4---------------4----------------|

E|------------------------------------------------------------------|
H|-------1-------1-------1-------1-------1-------1-------1-------1--|
G|-----3-------3-------3-------3-------3-------3-------2-------2----|
D|---3-------3-------2-------2-------3-------3-------3-------3------|
A|------------------------------------------------------------------|
E|-3---------------2---------------1---------------1----------------|

 B                        Gm              
Белый белый снег лёг на дома,
   D#                  D#m           F
Свой окончив век, осень ушла
 B                     Gm              
Так и у меня любовь прошла,
 D#                D#m           F
Зимняя пурга шепчет слова

Припев:

Gm                D7       B7               D#                
Не ищи, не зови,   не пиши, не звони,
D#m/F#                   B           C7/F#  F7       
Я теперь для тебя чужой
Gm                D7          B7           D#                
Постарайся, пойми   и меня не брани,
D#m/F#                B                C7/F#  F7       
Что ушёл от тебя к другой


Вьюга по земле гонит печаль,
Иней на стекле, выдал: "Прощай"
Где же та любовь? Где те мечты?
Кто же виноват, я или ты?

Это наша вина, что пришлось нам до дна
Выпить чашу беды, чашу мук
Это наша вина, что любовь принесла
Только слёзы да горечь разлук

Проигрыш=Вступление

Припев:

Не ищи, не зови, не пиши, не звони,
Я теперь для тебя чужой
Постарайся, пойми и меня не брани,
Что ушёл от тебя к другой

Переход на 1 тон выше (Am)

Am                 E7      C7              F(1)                
Не ищи, не зови,  не пиши, не звони,
Fm/G#                   C           D7/G#  G7   
Я теперь для тебя чужой
Am                 E7         C7          F(1)               
Постарайся, пойми  и меня не брани,
Fm/G#                C              D7/G#  G7  
Что ушёл от тебя другой

Окончание:

E|-----------------------------------------------------------------|
H|-------0-------0-------0-------0-------0-------0-------0-------0-|
G|-----5-------5-------5-------5-------5-------5-------5-------5---|
D|---2-------2-------2-------2-------2-------2-------2-------2-----|
A|---------------------------------0---------------0---------------|
E|-3---------------3-----------------------------------------------|

E|-----------------------------------------------------------------|
H|-------0-------0-------0-------0-------0-------0-------0-------0-|
G|-----5-------5-------5-------5-------5-------5-------5-------5---|
D|---3-------3-------3-------3-------3-------3-------3-------3-----|
A|-0---------------0-----------------------------------------------|
E|---------------------------------3---------------3---------------|

E|-----------------------------------------------------------------|
H|-------0-------0-------0-------0-------0-------0-------0-------0-|
G|-----5-------5-------5-------5-------5-------5-------5-------5---|
D|---2-------2-------2-------2-------2-------2-------2-------2-----|
A|---------------------------------0---------------0---------------|
E|-3---------------3-----------------------------------------------|

E|-----------------------------------------------------------------|
H|-------0-------0-------0-------0-------0---------0---------------|
G|-----5-------5-------5-------5-------5-----5-----5---------------|
D|---3-------3-------3-------3-------3---------3---3---------------|
A|-0---------------0-----------------------------------------------|
E|---------------------------------3---------------3---------------|
 


 
Последние комментарии

"Правильные аккорды. Я так же подобрал - только в ля миноре. А здесь не в ля, а фа миноре."
 

"Класс!!!!!!!!!!"
 

"Спасибо ОГРОМНОЕ! Удачи Вам!"
 

"ок"
 

"Отличная песня!!"
Настройка гитары
1-ая струна E (ми)  

2-ая струна H (си)  

3-я струна G (соль) 

4-ая струна D (ре) 

5-ая струна A (ля) 

6-ая струна E (ми) 
Статистика

Онлайн всего: 23
Гостей: 23
Пользователей: 0
Вход на сайт