Accordium Delectus Подборка аккордов
 
Главная > S > Shy'm > Femme De Couleur

Shy'm: Femme De Couleur



Вступление:

2 раза                                           

E|:-----4-----------------:|-----5---------------------5---2-----2-----|

H|:---------5-------5-----:|---------5-------5-----2---------------2---|

G|:-6-----------6-----6---:|-6-6---------6-----6-----2---2---2-------2-|

D|:---6---6---6---------6-:|-------7---7---------7---------------------|

A|:-4-------------4-------:|-0-------------0---------------------------|

E|:-----------------------:|-----------------------2-----------2-------|

Vous parler de ma vie vous dire à vous d'où je viens
Qui je suis je suis une femme de couleur

-----------------------------------------------------------------------------------------------------

C#m                                                    
Je viens de la où le soleil brille
                                              Asus2
Où les gens se parlent sans se connaître
                                               F#7sus4
Les vagues ramènent l'écho de la vie
                                        C#m
Et les oiseaux chantent à la fenêtre

C#m           
Le parfum de la liberté
    C#m               Hsus4   
L'enfant au visage métissé
Asus2                                                  
Qui regarde son père pour voir comment faire
F#7sus4                                                    
Les bons conseils qui feront de lui le grand frère
  
C#m                                                                 
Le sable chaud qui réchauffe les coeurs
Esus2                                                                     
De simple mots pour parler de bonheur
Asus2                                                                   
Ces mémoires qui redonnent le sourire
F#7sus4                                                                        
L'envie de vous chanter mes souvenirs

Припев:

         C#m7 C#7sus2 C#m7
Vous parler   de ma   vie
          C#7sus2 C#m7 
Vous dire d'où je viens
C#7sus2 C#m7  
Qui je  suis
              Hsus4        Asus2   
Je suis une femme de couleur
      F#7sus4
J'ai mon ole au fond du coeur
Hsus4       
Faut en parler, en parler

Vous parler de ma vie
Vous dire à vous d'où je viens
Qui je suis
Je suis une femme de couleur
J'ai mon ole au fond du coeur
Faut en parler, en parler

-----------------------------------------------------------------------------------------------------

E|-----------------------------------------------|

H|-5-------5---4-------4--------0------5-------5-|

G|------4-----------4------6-------6--------4----|

D|----6-----------6-----------6-----------6------|

A|-4----4------4----4------4----4------4----4----|

E|-----------------------------------------------|

                         Je viens de là où le soleil brille où les gens se parlent avec le cњur

E|-------------0------------0--------------------|

H|-0-------0-----------0----0--------------------|

G|------2-----------2-------2--------------------|

D|----2-----------2---------2--------------------|

A|-0----0------0----0-------0--------------------|

E|--------------------------2--------------------|

    Le vent de îles a fait de ma vie un océan de couleurs

E|-4-------4---2-------2-------------------------|

H|------5-----------5------5-------5---4-------4-|

G|----4-----------4-------------4-----------4----|

D|----------------------------6-----------6------|

A|-4----4------4----4------4----4------4----4----|

E|-----------------------------------------------|

          Cultiver la différence            s'éloigner de l'intolérance 

E|-------------0------------0--------------------|

H|-0-------0-----------0----0--------------------|

G|------2-----------2-------2--------------------|

D|----2-----------2---------2--------------------|

A|-0----0------0----0-------0--------------------|

E|--------------------------2--------------------|

                Affronter mes peurs en pensant au calme, à la couleur en chantant

C#m                                                               
Le sable chaud qui réchauffe les cњur
Esus2                                                                     
De simple mots pour parler de bonheur
Asus2                                                                   
Ces mémoires qui redonnent le sourire
F#7sus4                                                                           
L'envie de vous chanter mes souvenirs

Припев - 2 раза.

Окончание:

C#m7

Бой на гитаре (примерный вариант):

 


 
Последние комментарии

"Спасибо, огромное за песню... Трогает в самое сердце и душу...."
 

"Заглушка это белые стрелки на грифе?"
 

"Шикарное исполнение!!!"
 

"Спасибо. Очень нравятся песни Юлии Березовой. Царствие небесное."
 

"Третий куплет! А на белом свете солнцем всё согрето И берёзе ветер шепчет по секрету Всё сбылось как будто и печаль от части А невесты плачут плачут может быть от счастья!"
Статистика

Онлайн всего: 55
Гостей: 55
Пользователей: 0
Вход на сайт