Accordium Delectus Подборка аккордов
 
Главная > S > Sonne Hagal > Herr Gilbhardt

Sonne Hagal: Herr Gilbhardt



  Dm                         C            Dm                 C    Dm                    
E|-------------------------------------------------------------------------------------|
H|---3-----3-----3-----3-------1-----1-------3-----3-----3-----1-----3-----3-----3-----|
G|-----2-----2-----2-----2-------0-----0-------2-----2-----2-----0-----2-----2-----2---|
D|-0-----0-----0-----0-------------2-------0-----0-----0-----------0-----0-----0-------|
A|---------------------------3-------------------------------3-------------------------|
E|-------------------------------------------------------------------------------------|
Der A----bend--wald steht schwarz   und schweigt                                          

   C     F           C          Dm     C    Dm                 C    Dm                  
E|-------------------------------------------------------------------------------------|
H|---1-----1-----1-----1-----1-----3-----1-----3-----3-----3-----1-----3-----3-----3---|
G|-----0-----2-----2-----0-----0-----2-----0-----2-----2-----2-----0-----2-----2-----2-|
D|-------3-----3-----------2-----0-----------0-----0-----0-----------0-----0-----0-----|
A|-3-----------------3-----------------3-----------------------3-----------------------|
E|-------------------------------------------------------------------------------------|
   Kein  Le----ben   sich   im   Ne----bel   zeigt                                        

   C     F           C          Dm                 C     Dm                 
E|-------------------------------------------------------------------------|
H|---1-----1-----1-----1-----1-----3-----3-----3-----1-----3-----3-----3---|
G|-----0-----2-----2-----0-----0-----2-----2-----2-----0-----2-----2-----2-|
D|-------3-----3-----------2-----0-----0-----0------------0-----0-----0----|
A|-3-----------------3-----------------------------3-----------------------|
E|-------------------------------------------------------------------------|
   Von   Herb-stes   Hand   er---fasst                                        

   C     F           C          Dm     C    Dm                 C    Dm                  
E|-------------------------------------------------------------------------------------|
H|---1-----1-----1-----1-----1-----3-----1-----3-----3-----3-----1-----3-----3-----3---|
G|-----0-----2-----2-----0-----0-----2-----0-----2-----2-----2-----0-----2-----2-----2-|
D|-------3-----3-----------2-----0-----------0-----0-----0-----------0-----0-----0-----|
A|-3-----------------3-----------------3-----------------------3-----------------------|
E|-------------------------------------------------------------------------------------|
   Sinkt wel---kes   Laub  durch tau---ne    Last                                         


Im Nebeldicht die Welt erstirbt
Ein Tuch wie Grau aus grau gewirkt
Trüb wie es ihm gefällt,
Herr Gilbhardt nun regiert die Welt

Schwarzgraue Wolken, Regenmeer
Die Stoppelfelder, öd und leer
Von fern trägt Wind herbei,
Herbsteinsamkeit und Krähenschrei
 


 
Последние комментарии

"Очень бы хотелось аккорды (м.б упрощённый вариант) песни "Зима"...такая нежность, мудрость и тонкая сила проявлены в ней, благодарю"
 

"очень ноавится песня."
 

"можно на 1 струне"
 

"Реклама одолела"
 

"сильная песня"
Вход на сайт