Accordium Delectus Подборка аккордов
 

ССО Вега: Снег



Вступление (примерный вариант):

  Am9     D13     Gmaj7    Em7     Am7      F9     Em                
E|-7-----7-7-5------7-------------0-3-----------3---0-----0-----2-3-|
H|-5---5--------8-7-7---7-5---3-----1-----1-4-----------0---4-5-----|
G|-5-5--------------7-7---------0---0---0-----2---2---0-------------|
D|---------0--------5-----------------2-----3-------2---------------|
A|-0--------------------------------0-------------------------------|
E|--------------------------0---------------------------------------|
  Am9     D13     Gmaj7    Em7     Am7      F9     Em      флажолет   
E|-7-----7-7-5------7-------------0-3-----------3---0-----0-12↨13---|
H|-5---5--------8-7-7---7-5---3-----1-----1-4-----------0-----------|
G|-5-5--------------7-7---------0---0---0-----2---2---0-------------|
D|---------0--------5-----------------2-----3-------2---------------|
A|-0--------------------------------0-------------------------------|
E|--------------------------0---------------------------------------|

 Am7           Em             
Снег кружит за стеклом,
C9                     H7                        
Чей-то след   вдаль бежит
Am7 D7              Gmaj7   Em    
Я   замер пред своим окном,
Am7              H7           E7
Там свет в ночи гори-и-ит
Am7 D7              Gmaj7   Em    
Я   замер пред своим окном,
Am7 F9              Em         
Там      свет в ночи горит
 
Там, за порогом тьмы,
Летних дней жаркий бег
Где не видать ещё зимы,
Там память о тебе
Где не видать ещё зимы,
Там память о тебе
 
Спой, память, о ветрах,
Лета синь позови
Спой песню о моих друзьях
И песню о любви
Спой песню о моих друзьях
И песню о любви
 
Я тихо подпою,
Пусть услышит тот, кто ждёт
Снег песню закружит мою,
Снег память занесёт
Снег песню закружит мою,
Снег память занесёт

Окончание=Вступление
 
Последние комментарии

"Мне всегда слышалось " зато в руках заветный диск". И непонимание того, про кого все же песня: про расклейщиков афиш или коллекционеров разной атрибутики поп-идолов?"
 

"СУПЕР!"
 

"Спасибо!"
 

"На яндексмузыке, в сборниках Эдуарда Артемьева, эта песня длиннее - из 3-х куплетов. Добрая память замечательному композитору."
 

"Супер, вспомнил забытую вещь"
Вход на сайт